Oops, an error
Loading. Please wait.

Oh Pretty Woman tab

version 3
version 3

Whole song

Interactive

3,620 views 6 this week
1 commentread comment
1 2 3 4 5
2 more votes to show rating
add to favorites
×
Save as Personal and add changes to this tab that will be seen only by you. Learn more ›
×
You can save this tab as Personal to edit and correct it or add notes. All changes will be seen only by you. Learn more »
launch autoscroll
font size
0
reset
how to read this tab
guitar tuner
edit
Autoscroll
slow
fast
+/-
esc
set tempo
stop
Author
My first tab... enjoy!

h=hammer on
p=pull off


Intro

-------------------------------------------------------------------|
-------0------------------0-------------------0-----------0--------|
-----------2------------------2------------------2------------2----|
----2-------------------------------------2------------------------|
-0------------------------------------0-------------------------10-|
----------------------2--------------------------------2--------10-|
Play with chorus


-------------------------------------------------------------------|
-------------------------------------------------------------------|
-----------------7-------------------------------------------------|
-----------------7-------------------------------------------------|
---------5---(5)----------------5---(5)-0--------------------------|
-0-0-4-7----------------0-0-4-7-----------------14-----------------|

--------------------0-0------------------0-0-----------------------|
--------------------0-0------------------0-0-----------------------|
-------------------------------------------------------------------|
-----------4--------------------4--------------------4-------------|
---------5---7-5--------------5---7-5--------------5---7-5---------|
-0-0-4-7------------------4-7------------------4-7-----------------|

-0-0---------------------------------------------------------------|
-0-0---------------------------0----------------0------------------|
----------------------------------2-----------------2--------------|
------------4---------------2--------------------------------------|
----------5---7-5-------0------------------------------------------|
------4-7------------------------------------2---------------------|
                        Pretty woman walking down the street(ect)

-------------------------------------------------------------------|
-------0-------------0---------------3---2-----------3--2----------|
-----2----2-------------2----------2---2---4-2-------------4--2----|
---2-----------------------------0-------------0-------------------|
-0-----------------------------------------------------------------|
------------------2------------------------------------------------|

-------------------------------------------------------------------|
---------7----------------------7---7--------------7---------------|
----7-------9---------------9---7---7-9--------7------7--9---------|
-------9-------9-----(9)--9---9---9--------------9----7--9---------|
---------------7-----(7)-------------------------------------------|
-0-------------0-----(0)---------------------0---------------------|

------------------------------------------0--0---------------------|
------------------------------------------0--0---------------------|
---9----7----------------------------------------------------------|
-----9--7-9-7--6------------------4-------------------4------------|
-----------------7--------------5---7-5-------------5---7-5--------|
-0----------------------0-0-4-7-----------------4-7----------------|

-0-0-----------------0-0-------------------------------------------|
-0-0-----------------0-0-----------------------------7-------------|
-------------------------------------------------7------9----------|
------------4------------------5--------------9----9-------9-------|
----------5----7-5-----------5----7-5---------7--------------------|
------4-7----------------4-7------------------0--------------------|

---------------------------------------0-0-------------------------|
---------------------------------------0-0-------------------------|
-------------------------------------------------------------------|
-0-(2)------------------------4-------------------4----------------|
-------H-\------------------5---7-5-------------5---7-5------------|
-------H-\----------0-0-4-7-----------------4-7--------------------|
      slide

-0-0-------------------0-0-------------------1-------0---------3----|
-0-0-------------------0-0-------------------3-----3---3---------3--|
---------------------------------------------2---------------0----0-|
------------4---------------------4----------0-------------0--------|
----------5---7-5---------------5---7-5-----------------------------|
------4-7-------------------4-7---------------------------3---------|

------------------------0----------------------------1-------------|
------------------------0---1--3-5-3-(3)----------3-----3----------|
-----5------5---------2-------------------------2------------------|
---5------5------2----------------------------0--------------------|
-3------2------0---------------------------------------------------|
-------------------------------------------------------------------|

                                                          slide
------3--------------3-3------3------------------------------------|
---------3-----------3-3------3--------------0---1---3-----3/5-----|
------------0--------0-0------0--------------2---------------------|
---0-----------------------------------------2---------------------|
------------------3-------2------0-------(0)-----------------------|
-3-----------------------------------------------------------------|

-------1----1----0-0-0----------3----------------------------------|
-------3----3----3-3-3--------------3-3-------5-5---5---5-----6----|
-------2----2----2-2-2--------0---------0-----5-5---5---5-----5----|
---0------------------------0-----------0-----5-5---5---5----------|
--------------------------------------------------3---3---3--------|
--------------------------3----------------------------------------|
               slide
-----------------------------------1-------------------3-----------|
-6-6----6-6--5-5-\--------------3-----3--------------------3-------|
-5-5----5-5--5-5-\-----------2----------------------0--------------|
---7---------5-5-\-------0------------------------0----------------|
-------------------------------------------------------------------|
-----------------------------------------------3-------------------|

----------------------------------------------------------0--------|
-----3----1------3p1-----1-----3p1----3----------------3------3----|
---0------0--0----------------------0---------------2--------------|
----------------------------2--------------------0-----------------|
-3------3----3-----------------------------------------------------|
-------------------------------------------------------------------|
                                                  Pretty Woman...

--------3----------------------------------0-----------------------|
-------------3-----------------------------0---3--3h5p3h5p3h5p3----|
-----0---------0-------5------5----------2-------------------------|
---0-----------------5------5------2-------------------------------|
-------------------3------2------0---------------------------------|
-3-----------------------------------------------------------------|

---------1----------------3-----------------3----------------------|
-------------5----------------3-------------3----------------------|
------2---------------------------0---------0----------------------|
-0--0-----------------0---------------------0------0---------------|
-----------------------------------------3-----2------0------------|
--------------------3----------------------------------------------|

                   slide
-----------------------------------------------------------3-------|
------0-----1--3----3/5----3------3---3--1----3---------------3----|
------2---------------------------2----------------------0-------0-|
------2---------------------------0--------------------0---------0-|
-(0)---------------------------------------------------------------|
-----------------------------------------------------3-------------|
                                                     Pretty Woman...

----------------------------------------------------------1---1----|
----------------------------------------------------------3--------|
-----5--5-5---5-5---5-----2--2---2-2-2-2---------------0--2--------|
---5----5-5---5-5---5-----2--2---2-2-2-2---------------------------|
-3------3-3---3-3---3-----0--0---0-0-0-0---------------------------|
-------------------------------------------/9\---------------------|
                                      slide   slide

---------3---------------------------------------------------------|
-----3-------3------------------------------------------5-5-5------|
-----0---------------5---5-----5-----5---------0h2-2---------------|
-----0-------------5---5---5-5---5-5--------2---------2-2-2-2------|
-------------------3---3---3-3---3-3--------0----------------------|
-3-----------------------------------------------------------------|


-------------------------------------------------------------------|
------0-------------------3--2-------------------------------------|
-----------2-----------2--------2----------------------------------|
--------------------0--------------------------4-------------------|
---------------------------------------------5---7-5---------------|
-2-----------------------------------0-0-4-7-----------------------|

                             slide       slide slide
-0-0---------------------------------------------------------------|
-0-0--------------------7----7/9/10-------9/7---7/5---5-------(5)--|
--------------------------------------------------------------(-)--|
------------4-----------4----4/6/7--------6/4---4/2---2-------(2)--|
----------5---7-5--------------------------------------------------|
------4-7----------------------------------------------------------|

-0-0--------------------0-0----------------------------------------|
-0-0--------------------0-0----------------------------------------|
-------------------------------------------------------------------|
------------4----------------------4------------2\-----------------|
----------5---7-5----------------5---7-5---------------------------|
------4-7--------------------4-7---------------------------H\------|
                                              slide      slide

-----------------7------------(7)-----------------------------------|
----------7-----------------------7----7---7-----------------7------|
----7--------9-----------------------9---9---7----------7------9----|
-------9---------------------------------------------------9------9-|
------------------------------------------------------------------7-|
-0---------------------------------------------------0------------0-|
Woman don't you walk on by...

---------------------------------------------------------------------|
----------------------------------------7----------------------------|
---------9\-----------------------7--------9----------9----7-7-7-----|
-(9)----------0-(2)------------------9--------9-(9)-----9--9-9-9-----|
-(7)------------------------------------------7-(7)------------------|
-(0)---------------------------0--------------0-(0)--------------0-0-|

                       slide
----------------------------------------------------------------------|
----------7----------------------------------7------------------------|
----7---------9----------9\--------------7-------7--------------------|
-9-----9---------9--(9)-----0-(2)----------------------9\-------------|
-7---------------7--(7)--------------------------------7\--------14---|
-0---------------0--(0)---------------0----------------0-------/-14-\-|
                                                     slide     slide

--------------------------------------------------------------------|
--------------------------------------------------------------------|
----------------7---------------------------------------------------|
----------------7------------------------------------4--------------|
---------5--(5)--------------5--(5)-0--------------5---7-5----------|
-0-0-4-7-------------0-0-4-7---------------0-0-4-7------------------|

-0-0----------------0-0----------------0-0----------------0-0------------|
-0-0----------------0-0----------------0-0----------------0-0------------|
-------------------------------------------------------------------------|
-----------4------------------4-------------------4-----------------4----|
---------5---7-5------------5---7-5-------------5---7-5-----------5--7-5-|
-----4-7----------------4-7-----------------4-7---------------4-7--------|

--------------------------------------------------------------------|
--------------------------------------------------------------------|
-----------------------2--2-----------------------------------------|
-----------4-----------2--2-----------------------------------------|
---------5---7-5-------0--0-----------------------------------------|
-0-0-4-7------------------------------------------------------------|
                   PRETTY WOMAN!!!

            
            
Suggest correction
Creating personal tab
Creating personal tab
You can edit any tab online and save it as your Personal.

You can edit, replace or remove any tab part or add personal notes – all changes will be seen only by you.

Personal tabs can be accessed anytime from any device, even offline.
Learn more »
Give kudos to tab author, rate the tab!
1 2 3 4 5
comments
print report bad tab
1 comment total.
0 reply
thiagosilva 16 Jan 07, 2010 09:33 AM

i don't play this music very well,but i really know that this intro is wrong

guest
You may want to rate the tab now too:
select rating
Wanna post a correction for this tab? Suggest correction