Oops, an error
Loading. Please wait.

Unchained bass

version 1
version 1

Whole song

8,927 views 3 this week
no commentswrite comment
1 2 3 4 5
3 more votes to show rating
add to favorites
×
Save as Personal and add changes to this tab that will be seen only by you. Learn more ›
×
You can save this tab as Personal to edit and correct it or add notes. All changes will be seen only by you. Learn more »
launch autoscroll
font size
0
reset
guitar tuner
backing track
0:00
0:00
edit
Autoscroll
slow
fast
+/-
esc
set tempo
stop
-------------------------------------------------------------------------------
			     UNCHAINED - Van Halen
-------------------------------------------------------------------------------

Tabbed By : Isaias Garcia (TexasFury)

Tuning: Drop C#


Bass Guitar

  Intro - m.9
  H           E   Q     E     E  E  E  E  E  E  E  E     E  E  E  E  E  E  E  E
---------------------------|--------------------------|--------------------------|
---------------------------|--------------------------|--------------------------|
---------------------------|--------------------------|--------------------------|
-----------------12S----0--|--L--0--0--0--0--0--0--0--|--0--0--0--0--0--0--0--0--|


  E  E  E  E  E  E  E  E     E  E  E  E  E  E  E  S S    E  E  E  E  E  E  E  E
--------------------------|---------------------------|--------------------------|
--------------------------|---------------------------|--------------------------|
--------------------------|--------------3--3--3--3-4-|--5-----------------------|
--0--0--0--0--0--0--0--3--|--3--3--3--3---------------|-----0--0--0--0--0--0--0--|


  E  E  E  E  E  E  E  E     E  E  E  E  E  E  E  E     E  E  E  E  E  E    E   E
--------------------------|--------------------------|-----------------------------|
--------------------------|--------------------------|-----------------------------|
--------------------------|--------------------------|--------------3--3S--15S-----|
--0--0--0--0--0--0--0--0--|--0--0--0--0--0--0--0--3--|--3--3--3--3--------------0--|


  Verse 1
  E       E  E  E  E  E  E  E     E  E  E  E  E  E  E  E     E  E  E  E  E  E  E  E
-------------------------------|--------------------------|--------------------------|
-------------------------------|--------------------------|--------------------------|
-------------------------------|--------------------------|--------------------------|
--0-------0--0--0--0--0--0--0--|--0--0--0--0--0--0--0--0--|--0--0--0--0--0--0--0--0--|


  E  E  E  E  E  E  E  E     E  E  E  E  E  E  E  E     E  E  E  E  E  E  E  E
--------------------------|--------------------------|--------------------------|
--------------------------|--------------------------|--------------------------|
--------------------------|--------------------------|--------------------------|
--0--0--0--0--0--0--0--0--|--0--0--0--0--0--0--0--0--|--0--0--0--0--0--0--0--0--|


                                                           Pre-chorus
  E  E  E  E  E  E  E  E     E  E  E  E  E  E     Q        E          E  E  E  E  E  E  E
--------------------------|-----------------------------|----------------------------------|
--------------------------|-----------------------------|----------------------------------|
--------------------------|-----------------------------|----------------------------------|
--0--0--0--0--0--0--0--0--|--0--0--0--0--0--0--7g12\----|--5----------5--5--5--5--5--5--5--|


  E  E  E  E     E  E  E  E  E  E  E  E     E  E  E  E  E  E     E  E  E  E  E  E  E  E
--------------|--------------------------|--------------------|--------------------------|
--------------|--------------------------|--------------------|--------------------------|
--------------|--------------------------|--------------------|--------------------------|
--5--5--5--3--|--3--3--3--3--3--3--3--3--|--3--3--3--3--3--7--|--7--7--7--7--7--7--7--7--|


  E  E  E  E  E  E     E  E  E  E  E  E  E  E     E  E  E  E  E  E  E  E
--------------------|--------------------------|--------------------------|
--------------------|--------------------------|--------------------------|
--------------------|--------------------------|--------------------------|
--7--7--7--7--7--5--|--5--5--5--5--5--5--5--7--|-----6-----5-----3-----0--|


  Chorus 1
  E        E  E  E  E  E  E  E     E  E  E  E  E  E  E  E     E  E  E  E  E  E  E  E
--------------------------------|--------------------------|--------------------------|
--------------------------------|--------------------------|--------------------------|
--------------------------------|--------------------------|--------------------------|
--L--------0--0--0--0--0--0--0--|--0--0--0--0--0--0--0--0--|--0--0--0--0--0--0--0--3--|


  E  E  E  E  E  E  E  S S    E  E  E  E  E  E  E  E     E  E  E  E  E  E  E  E
---------------------------|--------------------------|--------------------------|
---------------------------|--------------------------|--------------------------|
--------------3--3--3--3-4-|--5-----------------------|--------------------------|
--3--3--3--3---------------|-----0--0--0--0--0--0--0--|--0--0--0--0--0--0--0--0--|


                                                        Verse 2
  E  E  E  E  E  E  E  E     E  E  E  E  E  E  E  E     E       E  E  E  E  E  E  E
--------------------------|--------------------------|-------------------------------|
--------------------------|--------------------------|-------------------------------|
--------------------------|--------------3--3--3--5--|--L\---------------------------|
--0--0--0--0--0--0--0--3--|--3--3--3--3--------------|----------0--0--0--0--0--0--0--|


  E  E  E  E  E  E  E  E     E  E  E  E  E  E  E  E     E  E  E  E  E  E  E  E
--------------------------|--------------------------|--------------------------|
--------------------------|--------------------------|--------------------------|
--------------------------|--------------------------|--------------------------|
--0--0--0--0--0--0--0--0--|--0--0--0--0--0--0--0--0--|--0--0--0--0--0--0--0--0--|


  E  E  E  E  E  E  E  E     E  E  E  E  E  E  E  E     E  E  E  E  E  E  E  E
--------------------------|--------------------------|--------------------------|
--------------------------|--------------------------|--------------------------|
--------------------------|--------------------------|--------------------------|
--0--0--0--0--0--0--0--0--|--0--0--0--0--0--0--0--0--|--0--0--0--0--0--0--0--0--|


                                Pre-chorus
  E  E  E  E  E  E     Q        E          E  E  E  E  E  E  E     E  E  E  E
-----------------------------|----------------------------------|--------------|
-----------------------------|----------------------------------|--------------|
-----------------------------|----------------------------------|--------------|
--0--0--0--0--0--0--7g12\----|--5----------5--5--5--5--5--5--5--|--5--5--5--3--|


  E  E  E  E  E  E  E  E     E  E  E  E  E  E     E  E  E  E  E  E  E  E     E  E  E  E  E E
--------------------------|--------------------|--------------------------|--------------------|
--------------------------|--------------------|--------------------------|--------------------|
--------------------------|--------------------|--------------------------|--------------------|
--3--3--3--3--3--3--3--3--|--3--3--3--3--3--7--|--7--7--7--7--7--7--7--7--|--7--7--7--7--7--5--|


                                                        Chorus 2
  E  E  E  E  E  E  E  E     E  E  E  E  E  E  E  E     E        E  E  E  E  E  E  E
--------------------------|--------------------------|--------------------------------|
--------------------------|--------------------------|--------------------------------|
--------------------------|--------------------------|--------------------------------|
--5--5--5--5--5--5--5--7--|-----6-----5-----3-----0--|--L--------0--0--0--0--0--0--0--|


  E  E  E  E  E  E  E  E     E  E  E  E  E  E  E  E     E  E  E  E  E  E  E  S S
--------------------------|--------------------------|---------------------------|
--------------------------|--------------------------|---------------------------|
--------------------------|--------------------------|--------------3--3--3--3-4-|
--0--0--0--0--0--0--0--0--|--0--0--0--0--0--0--0--3--|--3--3--3--3---------------|


  E  E  E  E  E  E  E  E     E  E  E  E  E  E  E  E     E  E  E  E  E  E  E  E
--------------------------|--------------------------|--------------------------|
--------------------------|--------------------------|--------------------------|
--5-----------------------|--------------------------|--------------------------|
-----0--0--0--0--0--0--0--|--0--0--0--0--0--0--0--0--|--0--0--0--0--0--0--0--3--|


                                Guitar Solo
  E  E  E  E  E  E     Q        Q           E  E  Q    Q       E  E  E  E     Q    Q    
 E  Q
-----------------------------|------------------------------|--------------|--------------------|
-----------------------------|------------------------------|--------------|--------------------|
--------------3--3--5g15\----|------------------------------|--------------|--------------------|
--3--3--3--3-----------------|--5-----------5--5-------5----|--5--5--L--3--|-------5----5--3----|


  Q    E  E  E  E     Q    Q    E  E  Q       Q    E  E  E  E     Q    Q    E  E  E  E
-------------------|-----------------------|-------------------|------------------------|
-------------------|-----------------------|-------------------|------------------------|
-------------------|-----------------------|-------------------|------------------------|
--5----5--3--L--7--|-------7----7--7-------|--7----7--7--L--5--|-------7----7--5-----7--|


                             Chorus 3
  E  E  E  E  E  E  E  E     E        E  E  E  E  E  E  E     E  E  E  E  E  E  E  E
--------------------------|--------------------------------|--------------------------|
--------------------------|--------------------------------|--------------------------|
--------------------------|--------------------------------|--------------------------|
-----6-----5-----3-----0--|--L--------0--0--0--0--0--0--0--|--0--0--0--0--0--0--0--0--|


  E  E  E  E  E  E  E  E     E  E  E  E  E  E  E  S S    E  E  E  E  E  E  E  E
--------------------------|---------------------------|--------------------------|
--------------------------|---------------------------|--------------------------|
--------------------------|--------------3--3--3--3-4-|--5-----------------------|
--0--0--0--0--0--0--0--3--|--3--3--3--3---------------|-----0--0--0--0--0--0--0--|


  E  E  E  E  E  E  E  E     E  E  E  E  E  E  E  E     E  E  E  E  E     E   E   E
--------------------------|--------------------------|-------------------------------|
--------------------------|--------------------------|-------------------------------|
--------------------------|--------------------------|--------------3--7g10--12--12--|
--0--0--0--0--0--0--0--0--|--0--0--0--0--0--0--0--3--|--3--3--3--3-------------------|


  Bridge
                                                        |---3---|
  W                   W                   H.            E   E   E      H          E    E 
 Q
-------------------|-------------------|---------------14--14--14--|--14s--------16s--14---L----|
-------------------|-------------------|---------------------------|----------------------------|
--0----------------|--L----------------|--L------------------------|----------------------------|
-------------------|-------------------|---------------------------|----------------------------|


  H.           E   E      Q    Q    Q    Q         Q     Q     Q     Q
----------------------|--14--------------------|--------------------------|
------------------14--|------------------------|--------------------------|
--0------------L------|--------0----0----7/----|--12----12----12----12----|
----------------------|------------------------|--------------------------|


   Q     Q     Q     Q        Q     Q     Q     Q        Q     Q     Q     Q
--------------------------|--------------------------|--------------------------|
--------------------------|--------------------------|--------------------------|
--12----12----12----12----|--12----12----12----12----|--12----12----12----12----|
--------------------------|--------------------------|--------------------------|


   Q     Q     Q     Q        Q     Q     Q     Q        Q    E  E  E  E  E  E
--------------------------|--------------------------|--------------------------|
--------------------------|--------------------------|--------------------------|
--12----12----12----12----|--12----12----12----12----|--12----0--0--0--0--0--0--|
--------------------------|--------------------------|--------------------------|


                                Chorus 4
  E  E  E  E  E   E   E   E     E        E  E  E  E  E  E  E     E  E  E  E  E  E  E  E
-----------------------------|--------------------------------|--------------------------|
-----------------------------|--------------------------------|--------------------------|
--0--0--0--0--0--------------|--------------------------------|--------------------------|
-----------------12---L\--0--|--L--------0--0--0--0--0--0--0--|--0--0--0--0--0--0--0--0--|


  E  E  E  E  E  E  E  E     E  E  E  E  E  E  E  S S    E  E  E  E  E  E  E  E
--------------------------|---------------------------|--------------------------|
--------------------------|---------------------------|--------------------------|
--------------------------|--------------3--3--3--3-4-|--5-----------------------|
--0--0--0--0--0--0--0--3--|--3--3--3--3---------------|-----0--0--0--0--0--0--0--|


  E  E  E  E  E  E  E  E     E  E  E  E  E  E  E  E     E  E  E  E  E  E  E  S S
--------------------------|--------------------------|---------------------------|
--------------------------|--------------------------|---------------------------|
--------------------------|--------------------------|--------------3--3--3--3-4-|
--0--0--0--0--0--0--0--0--|--0--0--0--0--0--0--0--3--|--3--3--3--3---------------|


  E  E  E  E  E  E  E  E     E  E  E  E  E  E   E   E      E  E  E  E  E  E  E  E
--------------------------|-----------------------------|--------------------------|
--------------------------|-----------------------------|--------------------------|
--5-----------------------|-----------------------------|--------------------------|
-----0--0--0--0--0--0--0--|--0--0--0--0--0--0--12---L\--|--0--0--0--0--0--0--0--3--|


  E  E  E  E  E  E  E  S S    E  E  E  E  E  E  E  E     E  E  E  E  E  E  E  E
---------------------------|--------------------------|--------------------------|
---------------------------|--------------------------|--------------------------|
--------------3--3--3--3-4-|--5-----------------------|--------------------------|
--3--3--3--3---------------|-----0--0--0--0--0--0--0--|--0--0--0--0--0--0--0--0--|


  E  E  E  E  E  E   Q        E  E  E  E  E  E  E  E     E  E  E  E  E  E  E  E
---------------------------|--------------------------|--------------------------|
---------------------------|--------------------------|--------------------------|
---------------------------|--------------3--3--------|--------------3--3--3-----|
--0--0--0--0--0--0--12\----|-----3--3--3-----------3--|--L--3--3--3-----------3--|


  E  E  E  E  E  E  E  E     W                   W                   W
--------------------------|-------------------|-------------------|-------------------|
--------------------------|-------------------|-------------------|-------------------|
--------------3--4--5-----|-------------------|-------------------|-------------------|
--L--3--3--3-----------0--|--L----------------|--L----------------|--L----------------|


  W                   W
-------------------|-------------------||
-------------------|-------------------||
-------------------|-------------------||
--L----------------|--L----------------||


Duration Legend
---------------
W - whole
H - half
Q - quarter
E - 8th
S - 16th
T - 32nd
X - 64th
. - note dotted
|-n-|  - n-tuplets


Tablature Legend
----------------
L - tied note
x - dead note
g - grace note
(n) - ghost note
> - accentuded note
NH - natural harmonic
AH - artificial harmonic
TH - tapped harmonic
SH - semi harmonic
PH - pitch harmonic
h - hammer on
p - pull off
b - bend
br - bendRelease
pb - preBend
pbr - preBendRelease
brb - bendReleaseBend
\n/ - tremolo bar dip
\n - tremolo bar dive
-/n - tremolo bar Release up
/n\ - tremolo bar inverted dip
/n - tremolo bar return
-\n - tremolo bar Release down
S - shift slide
s - legato slide
/ -  slide into from below or out of upwards
\ -  slide into from above or out of downwards
~ - vibrato
W - wide vibrato
tr - trill
TP - tremolo picking
T - tapping
S - slap
P - pop
< - fade in
^ - brush up
v - brush down

            
            
Suggest correction
Creating personal tab
Creating personal tab
You can edit any tab online and save it as your Personal.

You can edit, replace or remove any tab part or add personal notes – all changes will be seen only by you.

Personal tabs can be accessed anytime from any device, even offline.
Learn more »
Give kudos to tab author, rate the tab!
1 2 3 4 5
comments
print report bad tab
guest
You may want to rate the tab now too:
select rating
Wanna post a correction for this tab? Suggest correction