Oops, an error
Loading. Please wait.
We have an official Brown Eyed Girl tab made by UG professional guitarists. Check out the tab »
×

Brown Eyed Girl intro tab

version 1
version 1

Intro

Interactive

121,556 views 51 this week
12 commentsread comments
1 2 3 4 5
x 50
add to favorites
×
Save as Personal and add changes to this tab that will be seen only by you. Learn more ›
×
You can save this tab as Personal to edit and correct it or add notes. All changes will be seen only by you. Learn more »
launch autoscroll
font size
0
reset
how to read this tab
guitar tuner
backing track
0:00
0:00
edit
Autoscroll
slow
fast
+/-
esc
set tempo
stop
About this tab version
Tab has been removed by the person creating the tab because I felt that it was not correct at all. Was this info helpful? Yes No
Hi, I think this is the correct.


e|-3----5---7---5---3-----------|-8----10--12--10--8--------|-3----5---7---5---3--------|
B|------------------------------|---------------------------|---------------------------|
G|------------------------------|---------------------------|---------------------------|
D|------------------------------|---------------------------|---------------------------|
A|------------------------------|---------------------------|---------------------------|
E|------------------------------|---------------------------|---------------------------|


e|-5---2---3---5----------------|
B|------------------------------|
G|------------------------------|
D|------------------------------|
A|------------------------------|
E|------------------------------|

            
            
Suggest correction
Creating personal tab
Creating personal tab
You can edit any tab online and save it as your Personal.

You can edit, replace or remove any tab part or add personal notes – all changes will be seen only by you.

Personal tabs can be accessed anytime from any device, even offline.
Learn more »
comments
print report bad tab
12 comments total. Showing first comments.
0 reply
popshuvit3 10 Jul 05, 2004 08:00 PM

its a little off. i tried a few things and this is as close as i could get

e 3-5-7-5-3-8-10-12-10-8--------| e 3-5-7-5-3---2-3-5-3
B ------------------------------| B ----------3--------
G ------------------------------| G -------------------
D ------------------------------| D -------------------
A ------------------------------| A -------------------
E ------------------------------| E -------------------


if i got that wrong, email me at popshuvit3@sbcglobal.net

0 reply
popshuvit3 10 Jul 05, 2004 08:00 PM

oooops messed up there. heh. in the secnd part, forget that, it should be like this

e 3-5-7-5-3-Open-2-3-5-3
B ----------------------
G ----------------------
D ----------------------
A ----------------------
E ----------------------

0 reply
aron444 708 Jun 06, 2005 08:00 PM

People. The intro has two string chords, not single notes. Check out my tab and there are a few others that have it as well.

guest
You may want to rate the tab now too:
select rating
Wanna post a correction for this tab? Suggest correction