Oops, an error
Loading. Please wait.

Real Real Gone bass

version 1
version 1

Whole song

875 views 1 this week
1 commentread comment
1 2 3 4 5
1 last vote to show rating
add to favorites
×
Save as Personal and add changes to this tab that will be seen only by you. Learn more ›
×
You can save this tab as Personal to edit and correct it or add notes. All changes will be seen only by you. Learn more »
launch autoscroll
font size
0
reset
guitar tuner
edit
Autoscroll
slow
fast
+/-
esc
set tempo
stop
Author
Difficulty
Real Real Gone
tabbed by bass50611, any comments e-mail me at
bass254@btinternet.com
Not exactly as original recording think it's played mainly
down at the 12th fret area
but it fits and sounds good, have fun

Intro: (G)            (E)               (C)              (D) (Play This x3)
G-12-12--12-12-11-9---99-11-12-11-9----------------9-----------9-11-9------|
D------12--------------------------12---10-10-10-10--12---12-12------12-10-|
A--------------------------------------------------------------------------|
E--------------------------------------------------------------------------|
    (G)      (C)        (G)     (D)
G----------------------------------7/9-7------|
D---------------------------------------9-7---|
A--------0-2-3-3-3-2-0-----2-3-5-5------------|
E---3-3-3-------------3-3-3-------------------|

Verse:                                         (Play This x3)
G---------------------0---------------------------------|
D---5-5-5-5-4-2---22-4-4-2-----------2-------2-4-2------|
A------5------------------5---3-3-3-3--5---55-----5-3---|
E-------------------------------------------------------|

Chorus 1:
G-----------------------------------7/9-7------|
D----------------------------------------9-7---|
A---------0-2-3-3-3-2-0------2-3-5-5-----------|
E---3-3-3---------------3-3-3------------------|

Repeat Verse:

Chorus 2:
G------------------------------------------|
D------------------------------------------|
A---------0-2-3-3-3-2-0------2-3-5-5-5-5---|
E---3-3-3---------------3-33---------------|

Bridge:
(A)     (D)  (G)  (F#)   (E)  (A)     (D)       (G)
G--------------------------------------------------7/9-7---------7/9-7----|
D---------------5-5---4-4---2-22-2--------------5-5-----9-7---5-5-----9-7-|
A--------5-55-5--------------------------5-55-5---------------------------|
E-5-55-5--------------------------5-55-5----------------------------------|

G---------------------------------------------------------------|
D-----------------5-5---4-4---2-22-2-------------4-7------------|
A----------5-55-5-------------------------------7----55555555---|
E---5-55-5--------------------------5-55---5-55-----------------|

Repeat Verse & Chorus 1 (x3):

Repeat First Line Of Intro To Fade/End:

            
            
Suggest correction
Creating personal tab
Creating personal tab
You can edit any tab online and save it as your Personal.

You can edit, replace or remove any tab part or add personal notes – all changes will be seen only by you.

Personal tabs can be accessed anytime from any device, even offline.
Learn more »
Give kudos to tab author, rate the tab!
1 2 3 4 5
comments
print report bad tab
1 comment total.
0 reply
mattedbird 20 Dec 10, 2015 04:05 PM

This is sweet. Thanks a lot.

guest
You may want to rate the tab now too:
select rating
Wanna post a correction for this tab? Suggest correction