Oops, an error
Loading. Please wait.

Wild Night tab

version 2
version 2

Whole song

  • This tab attempts to show you the basic kind of gr... Show more

Interactive

45,573 views 24 this week
4 commentsread comments
1 2 3 4 5
x 28
add to favorites
×
Save as Personal and add changes to this tab that will be seen only by you. Learn more ›
×
You can save this tab as Personal to edit and correct it or add notes. All changes will be seen only by you. Learn more »
launch autoscroll
font size
0
reset
how to read this tab
guitar tuner
edit
Autoscroll
slow
fast
+/-
esc
set tempo
stop
Author
Unregistered
I just added one little run to the chorus.  It goes from Em to C, to D,
back to Em. Good job all you other tabbers!

Funky high part at beginning:

    Em           Em              G  (alternates w/G6)
e|--7---7--7-----12---12--12-----3---------------|
B|--8---8--8-----12---12--12-----0---------------|
G|--9---9--9-----12---12--12-----0---------------|
D|--9---9--9-----14---14--14-----0--(2)----------|
A|--7---7--7-----14---14--14-----2---------------|
E|--7---7--7-----12---12--12-----3---------------|

Funky little bass line (just the basic structure, varies a lot):
E|---------------------------------------------------------------|
B|---------------------------------------------------------------|
G|---------------------------------------------------------------|
D|--------5--------------------5------------------------------5--|
A|--7--7-----7--5-----5--7--7-----7--5---------------5--7--5-----|
E|-----------------7--------------------7--5\3--3/7--------------|

Em
As you brush your shoes
                     G   (G6)
And stand before the mirror
                  Em
And you comb your hair
                       G  (G6)
And grab your coat and hat
        Em
And you walk, wet streets
            G  (G6)
Tryin' to remember
        C
All the wild night breezes
D              G
In your mem'ry ever

         Em                 C
And ev'rything looks so complete
            Em                 C
When you're walkin' out on the street
        Em                C
And the wind catches your feet
              D
And sends you flyin', cryin'

Em   C      D       Em
Oooooooooooooo - wee
         D        G
The wild night is calling, alright
Em   C      D       Em
Oooooooooooooo - wee
         D        G
The wild night is calling.

And all the girls walk by
Dressed up for each other
And the boys do the boobie-woogie
On the corner of the street
And the people passin' by
Just stare in wild wonder
And inside the juke-box
Roars out just like thunder.

Ooooh - wee
The wild night is calling
The wild night is calling
Come on out and dance
Come on out and make romance..

************************************

| (n)  Ghost note
| /    Slide up
| \    Slide down

************************************

            
            
Suggest correction
Creating personal tab
Creating personal tab
You can edit any tab online and save it as your Personal.

You can edit, replace or remove any tab part or add personal notes – all changes will be seen only by you.

Personal tabs can be accessed anytime from any device, even offline.
Learn more »
comments
print report bad tab
4 comments total. Showing first comments.
0 reply
blademaster2008 50 May 21, 2008 07:43 PM

Am I retarded or is that an 8 string bass I'm seeing?

+1 reply
Jon Ellison 1,172 Nov 24, 2013 04:41 AM

You ain't a retard mate. The lines/strings underneath the letters (i.e. G, D, etc) is due to the lack of space on the right hand side of the page. The guy who submitted the tab couldn't fit the whole string on one line.
So;
A-----7--------7--5-----5--7------7--5--------------------5--7--5------------|
--5--7--5--------------------------------------------------------------------|
is meant to be;
A-----7--------7--5-----5--7------7--5--------------------5--7--5------------|--5--7--5--------------------------------------------------------------------|
I think I've run out of space as well.

0 reply
slick666 10 Feb 25, 2014 03:51 AM

I play the bass line like this on my guitar

E|---------------------------------------------------------------
B|---------------------------------------------------------------
G|---------------------------------------------------------------
D|--------5--------------------5------------------------------5--
A|--7--7-----7--5-----5--7--7-----7--5---------------5--7--5-----
E|-----------------7--------------------7--5\3--3/7--------------

guest
Wanna post a correction for this tab? Suggest correction