Oops, an error
Loading. Please wait.
We have Chord Pro version of Georgia.
It's the closest thing you can get to the original song and it has interactive parts. Check out the tab »
×
26,713 views 297 this week
1 commentread comment
1 2 3 4 5
x 25
add to favorites
×
Save as Personal and add changes to this tab that will be seen only by you. Learn more ›
×
You can save this tab as Personal to edit and correct it or add notes. All changes will be seen only by you. Learn more »
launch autoscroll
font size
0
reset
transpose
0
reset
simplify chords
display chords
guitar tuner
edit
Autoscroll
slow
fast
+/-
esc
set tempo
stop
Strumming
There is no strumming pattern for this song yet. and get +5 IQ
Vance Joy - Georgia
Capo 4th 

Intro
 Em              |G/B   C         |D                |G/B    C         ||x2
-----------------|----------------|-----------------|-----------------|
---8-----8-------|--3-----5-------|---7-----7-------|--3-----5--------|
-----0-----0---0-|----0-----0---0-|-----0-----0---0-|----0-----0----0-|
-----------------|----------------|-----------------|-----------------|
-7-----7-----7---|2-----3-----3---|-5-----5-----5---|2-----3-----3----|
-----------------|----------------|-----------------|-----------------|
 T m i T m i T i  (simili)

Verse 1
Em      G/B      C      D   G/B  C        Em     G/B  C   D     G/B  C          
 She is something to behold, elegant and bold
Em      G/B   C   D  G/B       C        Em     G/B  C   D     G/B  C  
 She is electricity running through my soul,            ohh
 C               |D                |                 ||
-----------------|-----------------|-----------------|
---5-----5-------|--7-----7-----7~-|-----------------|
-----0-----0---0-|----0-----0------|-----------------|
-----------------|-----------------|-----------------|
-3-----3-----3---|5-----5-----5----|-----------------|
-----------------|-----------------|-----------------|

Chorus    
   Em              D                  G                   C
And I could easily lose my mind, the way you kiss me will work each time
  -----------------|----------------|-----------------|------------------|
  ---8-----8-------|--7-----7-------|---0-----0-------|--5-----5---------|
  -----0-----0---0-|----0-----0---0-|-----0-----0---0-|----0-----0---0---|
  -----------------|----------------|-----------------|------------------|
  -7-----7-----7---|5-----5-----5---|-----------------|3-----3-----3-----|
  -----------------|----------------|-3-----3-----3---|------------------|

 Em                  D                   G             C
 Calling me to come back to bed singing Georgia on my mind        C*
     Em    D     G     C     Em    D     G     C*              (A)-3~----|
 And I,                   And I                                (E)-------|
                                                               
                                                       
Verse 2                  
Em    G/B   C       D        G/B      C        Em     G/B  C   D     G/B  C 
 Lips generous and warm, you build me up like steps
Em    G/B  C        D     G/B       C        Em     G/B  C   D     G/B  C    
 Eyes innocent and wild remind me what it's like,           ohh,  whoa  

  C    D 

Chorus    
     Em              D                 G                    C
 And I could easily lose my mind, the way you kiss me will work each time
  Em                D                     G                     C
 Pulling me back into the flames and I'm burning up again, I'm burning up
    Em     D                        G            C
 And I, I never understood what was at stake, I never thought your love was worth
       Em          D                                 G                C          C*
 It's wait, well now you've come and gone I finally worked it out, I worked it out


Bridge
C                                             **  C   D   Em   G
 I never should have told you                    -----------------
D                                                -5---7---8---12--
 I never should have let you see inside          -0---0---0---0---
Em                                               -----------------
 Don't want it troubling your mind               -3---5---7---10--
G                                                -----------------
 Won't you let it be?

C                             D
 I never should have told you; I never should have let you see inside
Em                                 G
 Don't want it troubling your mind; won't you let it be?
C                             D
 I never should have told you; I never should have let you see inside
Em                                 G
 Don't want it troubling your mind; won't you let it be?
C                             D
 I never should have told you; I never should have let you see inside
Em                                 G
 Don't want it troubling your mind; won't you let it be?

Interlude 
 Em             |D               |G/B             |C                |
----------------|----------------|----------------|-----------------|
---8-----8\-----|--7-----7---5\--|--0-----0-------|--5-----5---3----|
-----0----------|----0-----------|----0-----------|----0------------|
----------------|----------------|----------------|-----------------|
-7-----7--------|5-----5---------|----------------|3-----3----------|
----------------|----------------|3-----3---------|-----------------|

   Em           |D               |G               |C                ||
----------------|----------------|----------------|-----------------|
---8-----8\-----|--7-----7-------|--12----12-----\|5----------------|
-----0----------|----0-----------|----0-----------|0----------------|
----------------|----------------|----------------|-----------------|
/7-----7--------|5-----5---------|10----10-------\|3----------------|
----------------|----------------|----------------|-----------------|

Chorus    
     Em              D                 G                    C
 And I could easily lose my mind, the way you kiss me will work each time
  Em                D                     G                     C
 Pulling me back into the flames and I'm burning up again, I'm burning up 
    Em     D                        G            C
 And I, I never understood what was at stake, I never thought your love was worth
       Em          D                                 G                C
 It's wait, well now you've come and gone I finally worked it out, I worked it out


Outro     Em    D    G    C    Em    D    G    C* 
          ooh  aah  ohh  ohh   ooh  aah  ohh  ohh
           

            
            
Suggest correction
Creating personal tab
Creating personal tab
You can edit any tab online and save it as your Personal.

You can edit, replace or remove any tab part or add personal notes – all changes will be seen only by you.

Personal tabs can be accessed anytime from any device, even offline.
Learn more »
comments
print report bad tab
1 comment total.
+1 reply
chuckymolineaux 10 Aug 13, 2017 11:21 AM

Great

guest
You may want to rate the tab now too:
select rating
Wanna post a correction for this tab? Suggest correction