Oops, an error
Loading. Please wait.

Mess Is Mine tab

version 7
version 7
679 views 30 this week
1 commentread comment
1 2 3 4 5
x 3
add to favorites
×
Save as Personal and add changes to this tab that will be seen only by you. Learn more ›
×
You can save this tab as Personal to edit and correct it or add notes. All changes will be seen only by you. Learn more »
launch autoscroll
font size
0
reset
how to read this tab
guitar tuner
edit
Autoscroll
slow
fast
+/-
esc
set tempo
stop
Author
-------------------------------------------------------------------------------
                             MESS IS MINE - VANCE JOY
-------------------------------------------------------------------------------
Tabbed by:
E-mail:

Tuning:
    Talking like we used to do                         It was always me and you
e|-------------------------------------------------|-------------------------------------------------|
B|-------8---------5---5---------0-----------0-----|---------0-------1---1--------0-----------0------|
G|--0------0-----------------0-----0-----0-----0---|--0--------0--------------0-----0-----0-----0----|
D|------------------------------0----0------0----0-|------2------2---------------0----0------0----0--|
A|-----7-----7-----3---3---------------------------|-----------------3---3---------------------------|
E|--0------------------------3-----------3---------|--0-----------------------3-----------3----------|

    Shaken up and shippin' out                         Check me in and check me out
e|-------------------------------------------------|-------------------------------------------------|
B|-------8---------5---5---------0-----------0-----|---------0-------1---1--------0-----------0------|
G|--0------0-----------------0-----0-----0-----0---|--0--------0--------------0-----0-----0-----0----|
D|------------------------------0----0------0----0-|------2------2---------------0----0------0----0--|
A|-----7-----7-----3---3---------------------------|-----------------3---3---------------------------|
E|--0------------------------3-----------3---------|--0-----------------------3-----------3----------|

    Do you like walking in the rain                    When you think of love, do you think of pain 
e|-------------------------------------------------|-------------------------------------------------|
B|-------8---------5---5---------0-----------0-----|---------0-------1---1--------0-----------0------|
G|--0------0-----------------0-----0-----0-----0---|--0--------0--------------0-----0-----0-----0----|
D|------------------------------0----0------0----0-|------2------2---------------0----0------0----0--|
A|-----7-----7-----3---3---------------------------|-----------------3---3---------------------------|
E|--0------------------------3-----------3---------|--0-----------------------3-----------3----------|

    You can tell me what you see                       I will choose what I believe
e|-------------------------------------------------|-------------------------------------------------|
B|-------8---------5---5---------0-----------0-----|---------0-------1---1--------0-----------0------|
G|--0------0-----------------0-----0-----0-----0---|--0--------0--------------0-----0-----0-----0----|
D|------------------------------0----0------0----0-|------2------2---------------0----0------0----0--|
A|-----7-----7-----3---3---------------------------|-----------------3---3---------------------------|
E|--0------------------------3-----------3---------|--0-----------------------3-----------3----------|

    Hold on,                darling                           This body is yours, this body is yours and
e|-----------------------------------------------| |-----------------------------------------------|
B|-----0-----------0------------1----------1-----| |----1----------1-----------1----------1--------|
G|--0----0------0----0------0-----0-----0----0---| |-0----0-----0----0-----0-----0-----0----0------|
D|----0----0------0----0------2-----2-----2----2-| |---2----2-----2----2-----2-----2-----2----2----| X2
A|-----------------------------------------------| |-----------------------------------------------|
E|--3-----------3-----------3-----------3--------| |-3----------3----------3-----------3-----------|

    mine 
e|-----------------------------|
B|------0------0--1--3---------|
G|--0----0---------------------|
D|----0---0--------------------|
A|-----------------------------|
E|--3--------------------------|

    Hold on my darling      This mess was yours                 now your mess is mine
e|-----------------------------------------------| |-----------------------------------------------|
B|-----0-----------0------------1----------1-----| |----1----------1-----------1----------1--------|
G|--0----0------0----0------0-----0-----0----0---| |-0----0-----0----0-----0-----0-----0----0------|
D|----0----0------0----0------2-----2-----2----2-| |---2----2-----2----2-----2-----2-----2----2----| 
A|-----------------------------------------------| |-----------------------------------------------|
E|--3-----------3-----------3-----------3--------| |-3----------3----------3-----------3-----------|

INTERLUDE: Strummed
Em  C  G  G    x4



            
            
Suggest correction
Creating personal tab
Creating personal tab
You can edit any tab online and save it as your Personal.

You can edit, replace or remove any tab part or add personal notes – all changes will be seen only by you.

Personal tabs can be accessed anytime from any device, even offline.
Learn more »
Give kudos to tab author, rate the tab!
1 2 3 4 5
comments
print report bad tab
1 comment total.
0 reply
sourlimes 10 Mar 23, 2016 05:58 PM

Definitely the best one. A little difficult to learn at first, but ultimately the most accurate!

guest
You may want to rate the tab now too:
select rating
Wanna post a correction for this tab? Suggest correction