Oops, an error
Loading. Please wait.

Thousand Miles tab

version 3
version 3

Whole song

56,700 views 60 this week
2 commentsread comments
1 2 3 4 5
x 6
add to favorites
×
Save as Personal and add changes to this tab that will be seen only by you. Learn more ›
×
You can save this tab as Personal to edit and correct it or add notes. All changes will be seen only by you. Learn more »
launch autoscroll
font size
0
reset
how to read this tab
guitar tuner
edit
Autoscroll
slow
fast
+/-
esc
set tempo
stop
Band/Artist: Vanessa Carlton
Song Title: Thousand Miles
Tuning: Standard w/ Capo on 3rd Fret
Tabbed by: thunderscreem

I tabbed this song from a piano piece a played since 2005 and i liked it very
much even though I simplified it on the Guitar.. hehe.. Just listen to the song
for you to get it correctly

Note:
(Capo on 3rd Fret so the 3rd fret will be on 0 then 4th at 1 5th at 2 and so on)

Intro
e|--3---|-2---|-----|-----|---------|\
B|---3--|--3--|-3---|-3---|-1p0-----| \
G|----0-|---2-|--0--|--0--|----2p0--|  \__
D|------|-0---|---0-|---0-|---------|  /  \
A|------|-----|-2---|-2---|---------| /    \
E|--3---|-----|-----|-----|---------|/      \
                                             \
e|--3---|-2---|-----|-----|----------------|\ \
B|---3--|--3--|-3---|-3---|--0-0-0-1p0-----| \ \   
G|----0-|---2-|--0--|--0--|-0-0-0-0---2p0--|  \_\_2x
D|------|-0---|---0-|---0-|----------------|  /   
A|------|-----|-2---|-2---|----------------| /
E|--3---|-----|-----|-----|----------------|/

Verse I
e|--3---2-------0--|
B|--3---3---3---3--|
G|----------0------| 2x
D|------0----------|
A|----------2---3--|
E|--3--------------|

then repeat intro 2x

e|--3---2-------0--|
B|--3---3---3---3--|
G|----------0------| 2x
D|------0----------|
A|----------2---3--|
E|--3--------------|

PreChorus
e|-------------|
B|-------------|
G|--000-444-2--| 3x
D|--222-000-0--|
A|--222-555-2--|
E|--000-000-0--|

e|--3~--2~--|
B|--3~--3~--|
G|--0~--2~--|
D|--2~--0~--|
A|--3~------|
E|----------|

Chorus
e|--3-3-3-2-2-2-2-2-3-3-3-3-3-3-3-3--|
B|--3-3-3-3-3-3-3-3-3-3-3-3-3-3-3-3--|
G|--0-0-0-2-2-2-2-2-0-0-0-0-0-0-0-0--| 3x
D|--0-0-0-0-0-0-0-0-2-2-2-2-2-2-2-2--|
A|--2-2-2-----------2-2-2-3-3-3-3-3--|
E|--3-3-3----------------------------|

e|--3~-3~-2~--|
B|--3~-3~-3~--|
G|--0~-0~-2~--|
D|--2~-0~-0~--|
A|--2~-2~-----|
E|-----3~-----|

Repeat Intro

Verse II
e|--3---2-------0--|
B|--3---3---3---3--|
G|----------0------| 2x
D|------0----------|
A|----------2---3--|
E|--3--------------|

then repeat intro 2x

e|--3---2-------0--|
B|--3---3---3---3--|
G|----------0------| 2x
D|------0----------|
A|----------2---3--|
E|--3--------------|

PreChorus
e|-------------|
B|-------------|
G|--000-444-2--| 3x
D|--222-000-0--|
A|--222-555-2--|
E|--000-000-0--|

e|--3~--2~--|
B|--3~--3~--|
G|--0~--2~--|
D|--2~--0~--|
A|--3~------|
E|----------|

Chorus
e|--3-3-3-2-2-2-2-2-3-3-3-3-3-3-3-3--|
B|--3-3-3-3-3-3-3-3-3-3-3-3-3-3-3-3--|
G|--0-0-0-2-2-2-2-2-0-0-0-0-0-0-0-0--| 3x
D|--0-0-0-0-0-0-0-0-2-2-2-2-2-2-2-2--|
A|--2-2-2-----------2-2-2-3-3-3-3-3--|
E|--3-3-3----------------------------|

e|--3~-3~-2~--|
B|--3~-3~-3~--|
G|--0~-0~-2~--|
D|--2~-0~-0~--|
A|--2~-2~-----|
E|-----3~-----|

Repeat Intro

Bridge
e|------------------------|
B|--I HAVEN'T FIGURED-----|
G|----THIS OUT YET--------|
D|----I'LL UPDATE---------|
A|----THIS LATER----------|
E|------------------------|

Verse I
e|--3---2-------0--|
B|--3---3---3---3--|
G|----------0------| 2x
D|------0----------|
A|----------2---3--|
E|--3--------------|

then repeat intro 2x

e|--3---2-------0--|
B|--3---3---3---3--|
G|----------0------| 2x
D|------0----------|
A|----------2---3--|
E|--3--------------|

PreChorus
e|-------------|
B|-------------|
G|--000-444-2--| 3x
D|--222-000-0--|
A|--222-555-2--|
E|--000-000-0--|

e|--3~--2~--|
B|--3~--3~--|
G|--0~--2~--|
D|--2~--0~--|
A|--3~------|
E|----------|

Chorus
e|--3~---2~---3~---3~--|
B|--3~---3~---3~---3~--|
G|--0~---2~---0~---0~--| 3x
D|--0~---0~---2~---2~--|
A|--2~--------2~---3~--|
E|--3~-----------------|

e|--3~-3~-2~--|
B|--3~-3~-3~--|
G|--0~-0~-2~--|
D|--2~-0~-0~--|
A|--2~-2~-----|
E|-----3~-----|

e|--3-3-3-2-2-2-2-2-3-3-3-3-3-3-3-3--|
B|--3-3-3-3-3-3-3-3-3-3-3-3-3-3-3-3--|
G|--0-0-0-2-2-2-2-2-0-0-0-0-0-0-0-0--| 3x
D|--0-0-0-0-0-0-0-0-2-2-2-2-2-2-2-2--|
A|--2-2-2-----------2-2-2-3-3-3-3-3--|
E|--3-3-3----------------------------|

e|--3~-3~-2~--|
B|--3~-3~-3~--|
G|--0~-0~-2~--| 2x
D|--2~-0~-0~--|
A|--2~-2~-----|
E|-----3~-----|

Repeat Intro

Thank you! Hope you will like it

            
            
Suggest correction
Creating personal tab
Creating personal tab
You can edit any tab online and save it as your Personal.

You can edit, replace or remove any tab part or add personal notes – all changes will be seen only by you.

Personal tabs can be accessed anytime from any device, even offline.
Learn more »
comments
print report bad tab
2 comments total.
+2 reply
louie12rivera 10 Apr 14, 2011 07:27 PM

freakin' hard

+1 reply
.singmetosleep 10 May 10, 2012 08:11 AM

Heya, *really* love what you did with this! For the bridge I found using your pre-chorus chords works- except I substituted the '5' on the G string of the second chord for a '5' on the D string instead, just moved my finger up one string (hope that makes sense, can't work out how to put it in tab format!) Thanx for the tab, bet it sounds lovely on piano too.

guest
You may want to rate the tab now too:
select rating
Wanna post a correction for this tab? Suggest correction