Oops, an error
Loading. Please wait.

We Ate The Horse You Rode In On tab

version 2
version 2

Whole song

by Vanna
9,179 views 3 this week
3 commentsread comments
1 2 3 4 5
x 6
add to favorites
×
Save as Personal and add changes to this tab that will be seen only by you. Learn more ›
×
You can save this tab as Personal to edit and correct it or add notes. All changes will be seen only by you. Learn more »
launch autoscroll
font size
0
reset
how to read this tab
guitar tuner
edit
Autoscroll
slow
fast
+/-
esc
set tempo
stop
First tab I ever wrote on here.. I wanted to write this on Guitar pro, 
but atleast everyone can read this if I wrote it out. I dont think it sounds
100% right [ie. the chorus and harmonizations], but it's good enough for me [:

Tuning B F# B E G# C#


Intro
Guitar 1
C#|---------------------------------------|
G#|---------------------------------------|
E |---------------------------------------|
B |-0-0-----------------------------------|
F#|-0-0-----------------------------------|
B |-0-0-----------------------------------| x2

--

Verse
Guitar 1
C#|---------------------------------------|
G#|---------------------------------------|
E |---------------------------------------|
B |-0-0-----3---3h5-6-5-3-----------------|
F#|-0-0-3h5---5-----------5-3h5-55-3h5-5--|
B |-0-0-----------------------------------|

C#|---------------------------------------|
G#|---------------------------------------|
E |---------------------------------5-----|
B |-0-0-----3---3h5-6-5-3-------3h5-------|
F#|-0-0-3h5---5-----------5-3h5-----------|
B |-0-0-----------------------------------| x4

Guitar 2 [starts the third time around]
C#|---------------------------------------|
G#|---------6---6h8-9-8-6-----------------|
E |-----5h7---7-----------7-5h7-77-5h7-7--|
B |-0-0-----------------------------------|
F#|-0-0-----------------------------------|
B |-0-0-----------------------------------|

C#|---------------------------------8-----|
G#|---------6---6h8-9-8-6-------6h8-------|
E |-----5h7---7-----------7-5h7-----------|
B |-0-0-----------------------------------|
F#|-0-0-----------------------------------|
B |-0-0-----------------------------------| x2

--

Guitar 1
C#|---------------------------------------|
G#|---------------------------------------|
E |---------------------------------------|
B |-0-0-----------------------------------|
F#|-0-0-----------------------------------|
B |-0-0-----------------------------------| x2

Guitar 1
C#|---------------------------------------|
G#|-----6---------------------------------|
E |--------7--5---------------------------|
B |-0-0----------8--7--5--7~--5~----------|
F#|-0-0-----------------------------------|
B |-0-0-----------------------------------| 

C#|---------------------------------------|
G#|-----6---------------------------------|
E |--------7--5---------------------------|
B |-0-0----------8--7--5--7~--------------|
F#|-0-0-----------------------5~----------|
B |-0-0-----------------------------------| x2

Guitar 2
C#|---------------------------------------|
G#|---------------------------------------|
E |-----7---------------------------------|
B |-0-0----8--7---------------------------|
F#|-0-0----------10-8--7--8~--7~----------|
B |-0-0-----------------------------------| 

C#|---------------------------------------|
G#|---------------------------------------|
E |-----7---------------------------------|
B |-0-0----8--7---------------------------|
F#|-0-0----------10-8--7--8~--5~----------|
B |-0-0-----------------------------------| x2

Guitars 1
C#|---------------------------------------|
G#|---------------------------------------|
E |-10101010101010101010101010------------|
B |-10101010101010101010101010------------|
F#|-8-8-8-8-8-8-8-8-8-8-8-8-8-------------|
B |---------------------------------------| 

Guitar 2
C#|---------------------------------------|
G#|---------------------------------------|
E |-17171717171717171717171717------------|
B |-x-x-x-x-x-x-x-x-x-x-x-x-x-------------|
F#|-15151515151515151515151515------------|
B |---------------------------------------| 

--

Chorus
Guitar 1
C#|--------------------------------------------------|
G#|--------------------------------------------------|
E |-12-14141414-12-14141414-12-14141414-12-10101010--|
B |-x--x-x-x-x--x--x-x-x-x--x--x-x-x-x--x--x-x-x-x---|
F#|-10-12121212-10-12121212-10-12121212-10-8-8-8-8---|
B |--------------------------------------------------| 

C#|--------------------------------------------------|
G#|--------------------------------------------------|
E |-12-14141414-12-14141414-9--10101010-12-10101010--|
B |-x--x-x-x-x--x--x-x-x-x--x--x-x-x-x--x--x-x-x-x---|
F#|-10-12121212-10-12121212-7--8-8-8-8--10-8-8-8-8---|
B |--------------------------------------------------| x2

[Play this, for Guitar 1, before repeating]
C#|--------------------------------------------------|
G#|--------------------------------------------------|
E |-1717171717171717191919---------------------------|
B |-x-x-x-x-x-x-x-x-x-x-x----------------------------|
F#|-1515151515151515171717---------------------------|
B |--------------------------------------------------|

Guitar 2
C#|------------------|-------------------|
G#|------------------|-------------------|
E |----------7-7-7-7-|-------------------|
B |-0-0-0-0--7-7-7-7-|-3-3-3-3--5-5-5-5--|
F#|-0-0-0-0--5-5-5-5-|-3-3-3-3--5-5-5-5--|
B |-0-0-0-0----------|-3-3-3-3--5-5-5-5--| x2

[Play this, for Guitar 2, before repeating]
C#|--------------------------------------------------|
G#|--------------------------------------------------|
E |--------------------------------------------------|
B |-8-7-8--8-8-8--8--8h10----------------------------|
F#|-8-7-8--8-8-8--8--8h10----------------------------|
B |-8-7-8--8-8-8--8--8h10----------------------------|

--

Sweet part

Guitar 1
C#|--------------------------------------------------|
G#|--------------------------------------------------|
E |-1717171717171717191919-1414141414141414151515----|
B |-x-x-x-x-x-x-x-x-x-x-x--x-x-x-x-x-x-x-x-x-x-x-----|
F#|-1515151515151515171717-1212121212121212131313----|
B |--------------------------------------------------| x4

Guitar 2
C#|--------------------------------------------------|
G#|--------------------------------------------------|
E |--------------------------------------------------|
B |-8-7-8--8-8-8--8--8h10--121212-121212-12-12h10----|
F#|-8-7-8--8-8-8--8--8h10--121212-121212-12-12h10----|
B |-8-7-8--8-8-8--8--8h10--121212-121212-12-12h10----| x4

--

Verse 2
Guitars 1&2 [If youre into that kind of thing]
C#|------------------------------------------------|
G#|------------------------------------------------|
E |------------------------------------------------|
B |-0--3-5-3-5--12--3-5-3-5-0--0--3-5-3-5-3--------|
F#|-0--3-5-3-5--12--3-5-3-5-0--0--3-5-3-5-3--------|
B |-0--3-5-3-5--12--3-5-3-5-0--0--3-5-3-5-3-(3)-12\| 

C#|------------------------------------------------|
G#|------------------------------------------------|
E |------------------------------------------------|
B |-0--3-5-3-5--12--3-5-3-5-0--0--3-5-3-5-3~-------|
F#|-0--3-5-3-5--12--3-5-3-5-0--0--3-5-3-5-3~-------|
B |-0--3-5-3-5--12--3-5-3-5-0--0--3-5-3-5-3~-------| x2

--

Guitar 1
C#|---------------------------------------|---------------------------------------|
G#|---------------------------------------|---------------------------------------|
E-|---------------------------------------|---------------------------------5-----|
B-|-0-0-----3---3h5-6-5-3-----------------|-0-0-----3---3h5-6-5-3-------3h5-------|
F#|-0-0-3h5---5-----------5-3h5-55-3h5-5--|-0-0-3h5---5-----------5-3h5-----------|
B-|-0-0-----------------------------------|-0-0-----------------------------------|

Guitar 2 
C#|---------------------------------------|---------------------------------8-----|
G#|---------------------------------------|---------6---6h8-9-8-6-------6h8-------|
E-|---------------------------------------|-----5h7---7-----------7-5h7-----------|
B-|---------------------------------------|-0-0-----------------------------------|
F#|---------------------------------------|-0-0-----------------------------------|
B-|---------------------------------------|-0-0-----------------------------------|

Guitar 1
C#|---------------------------------------|---------------------------------------|
G#|-----6---------------------------------|-----6---------------------------------|
E-|--------7--5---------------------------|--------7--5---------------------------|
B-|-0-0----------8--7--5--7~--5~----------|-0-0----------8--7--5--7~--------------|
F#|-0-0-----------------------------------|-0-0-----------------------5~----------|
B-|-0-0-----------------------------------|-0-0-----------------------------------|  

Guitar 2
C#|---------------------------------------|---------------------------------------|
G#|---------------------------------------|---------------------------------------|
E-|-----7---------------------------------|-----7---------------------------------|
B-|-0-0----8--7---------------------------|-0-0----8--7---------------------------|
F#|-0-0----------10-8--7--8~--7~----------|-0-0----------10-8--7--8~--5~----------|
B-|-0-0-----------------------------------|-0-0-----------------------------------| 


Guitars 1
C#|---------------------------------------|
G#|---------------------------------------|
E |-10101010101010101010101010------------|
B |-10101010101010101010101010------------|
F#|-8-8-8-8-8-8-8-8-8-8-8-8-8-------------|
B |---------------------------------------| 

Guitar 2
C#|---------------------------------------|
G#|---------------------------------------|
E |-17171717171717171717171717------------|
B |-x-x-x-x-x-x-x-x-x-x-x-x-x-------------|
F#|-15151515151515151515151515------------|
B |---------------------------------------| 

--

Chorus

--

Breakdown!

C#|------------------------------|------------------------------|
G#|------------------------------|------------------------------|
E |------------------------------|------------------------------|
B |------------------------------|------------------------------|
F#|------------------------------|------------------------------|
B |-0-0--11-0-6-7--7-7-7-4-4-2-2-|-0-0--11-0-6-7~---------------| x2

C#|------------------------------|------------------------------|
G#|------------------------------|------------------------------|
E |------------------------------|------------------------------|
B |-0-0--11-0-6-7--7-7-7-4-4-2-2-|-0-0--11-0-6-7~---------------|
F#|-0-0--11-0-6-7--7-7-7-4-4-2-2-|-0-0--11-0-6-7~---------------|
B |-0-0--11-0-6-7--7-7-7-4-4-2-2-|-0-0--11-0-6-7~---------------| x2

C#|------------------------------|------------------------------|
G#|------------------------------|-10-10--10-10-----------------|
E |------------------------------|-13-13--13-13b----------------|
B |-0-0--11-0-6-7--7-7-7-4-4-2-2-|------------------------------|
F#|-0-0--11-0-6-7--7-7-7-4-4-2-2-|------------------------------|
B |-0-0--11-0-6-7--7-7-7-4-4-2-2-|------------------------------| 

            
            
Suggest correction
Creating personal tab
Creating personal tab
You can edit any tab online and save it as your Personal.

You can edit, replace or remove any tab part or add personal notes – all changes will be seen only by you.

Personal tabs can be accessed anytime from any device, even offline.
Learn more »
comments
print report bad tab
3 comments total.
0 reply
SlashRules 10 Nov 30, 2008 04:23 PM

this is a really good tab. awesome song as well.

+1 reply
Co&Ca11 16 Mar 18, 2009 09:12 AM

good tab but i got this for the breakdown:

|----------------------------|--------------|
|----------------------------|--------------|
|----------------------------|--------------|
|----------------------------|--------------|
|----------------------------|--------------|
|-0-0-12-0-7-6-6-6-6-5-5-3-3-|-0-0-12-0-7-6-|

0 reply
vdgdt 10 Dec 22, 2012 12:28 PM

i dont understand whats happening in the chorus.

guest
You may want to rate the tab now too:
select rating
Wanna post a correction for this tab? Suggest correction