Oops, an error
Loading. Please wait.

Volver A Vivir tab

by Vaquero
36 views 1 this week
no commentswrite comment
1 2 3 4 5
3 more votes to show rating
add to favorites
×
Save as Personal and add changes to this tab that will be seen only by you. Learn more ›
×
You can save this tab as Personal to edit and correct it or add notes. All changes will be seen only by you. Learn more »
launch autoscroll
font size
0
reset
how to read this tab
guitar tuner
edit
Autoscroll
slow
fast
+/-
esc
set tempo
stop
Vaquero - Dying to live


C#        E         F#           A

-----------------------------------------------------
--7-8---5------5-7-7---7-8---5--------5-7-7----------
------6------6-------------6--------6----------------
-----------------------------------------------------
-----------------------------------------------------
-----------------------------------------------------


C#        E         F#           A

-----------------------------------------------------
--7-8---5------5-7-7---7-8---5--------5-7-7----------
------6------6-------------6--------6----------------
-----------------------------------------------------
-----------------------------------------------------
-----------------------------------------------------

(Silencio en la guitarra)


(Verso)
       B-C# C#
Todo el tiempo, mi mente
       G#-A A  E-F# F#
y mi corazon (todo)
        B-C# C#
cada recuerdo, todo el dolor
       A     F#
mi alma y todo
     B-C# C#
En este mundo que nadie sabe pedir perdon
   G#-A A    G#-A A        E-F# F#
he enfocado mi sentidos, encontre el camino

   C#                     E
van a cambiar las cosas (volver a vivir)
      F#                    A
no hay nada mas que te puedas pedir (volver a vivir)
C#                     E
voy a cambiar la forma
      F#              A
regresar y volver a vivir (volver a vivir)


(Silencio en la guitarra)


(Verso)

        B-C# C#
y cada oracion, mis pensamientos
       G#-A A  E-F# F#
esta cancion, y todo
        B-C# C#
y las cosas no siempre son como se ven
         G#-A A                E-F# F#
y un paseo por el abismo, sigue siendo el mismo


C#                     E
van a cambiar las cosas (volver a vivir)
      F#                    A
no hay nada mas que te puedas pedir (volver a vivir)
C#                     E
voy a cambiar la forma
      F#              A
regresar y volver a vivir (volver a vivir)


(Silencio en la guitarra)
-
-
-


-----------------------------------------------------
--7-8---5------5-7-7---7-8---5--------5-7-7----------
------6------6-------------6--------6----------------
-----------------------------------------------------
-----------------------------------------------------
-----------------------------------------------------


-----------------------------------------------------
--7-8---5------5-7-7---7-8---5--------5-7-7----------
------6------6-------------6--------6----------------
-----------------------------------------------------
-----------------------------------------------------
-----------------------------------------------------


C#                     E
van a cambiar las cosas (volver a vivir)
      F#                    A
no hay nada mas que te puedas pedir (volver a vivir)
C#                     E
voy a cambiar la forma
      F#              A
regresar y volver a vivir (volver a vivir)


                 volver A vivir       volver A vivir
C#        E         F#           A

-----------------------------------------------------
--7-8---5------5-7-7---7-8---5--------5-7-7----------
------6------6-------------6--------6----------------
-----------------------------------------------------
-----------------------------------------------------
-----------------------------------------------------


                volver A vivir        volver A vivir
C#        E         F#           A

-----------------------------------------------------
--7-8---5------5-7-7---7-8---5--------5-7-7----------
------6------6-------------6--------6----------------
-----------------------------------------------------
-----------------------------------------------------
-----------------------------------------------------


B-C# C#   G#-A A   E-F#  F#

2/4--4-*--4/5--5-*-7/9---9---*--------------------
4/6--6-*--4/5--5-*-9/11--11--*--------------------
4/6--6-*--5/6--6-*-9/11--11--*--------------------
4/6--6-*--6/7--7-*-9/11--11--*--------------------
2/4--4-*--6/7--7-*-7/9---9---*--------------------
2/4--4-*--4/5--5-*-7/9---9---*--------------------


Va para todos los fans de vaquero
saludos a los cuates del msn
y especialmente dedicada para montC de zolar..
cualquiero duda o comentario a zurdokmexico@
Soy Cesar :P

            
            
Suggest correction
Creating personal tab
Creating personal tab
You can edit any tab online and save it as your Personal.

You can edit, replace or remove any tab part or add personal notes – all changes will be seen only by you.

Personal tabs can be accessed anytime from any device, even offline.
Learn more »
Give kudos to tab author, rate the tab!
1 2 3 4 5
comments
print report bad tab
guest
Wanna post a correction for this tab? Suggest correction