Oops, an error
Loading. Please wait.

Achtung tab

by Varg
1,126 views 30 this week
1 commentread comment
1 2 3 4 5
x 4
add to favorites
×
Save as Personal and add changes to this tab that will be seen only by you. Learn more ›
×
You can save this tab as Personal to edit and correct it or add notes. All changes will be seen only by you. Learn more »
launch autoscroll
font size
0
reset
how to read this tab
guitar tuner
edit
Autoscroll
slow
fast
+/-
esc
set tempo
stop
About this tab version
Varg achtung TAB It's to the ear be indulgent please (Text Translate). Was this info helpful? Yes No
Tuning B standard 6 strings: B E A D f# B

B |---------------------------------------------------------------------------------------------------|
F#|---------------------------------------------------------------------------------------------------|
D |---------------------------------------------------------------------------------------------------|
A |---------------------------------------------------------------------------------------------------|
E |---------3--2--2--2--2--2--2---------3--2--2--2--2--2--2---------3--2-5--6--2--2--2--2-------------|
B |-0-3-1-0-1--0--0--0--0--0--0-0-3-1-0-1--0--0--0--0--0--0-0-3-1-0-1--0-------0--0--0--0-0-3-1-0-1-0-|
                                                                         ♦  ♦
                    (x2)
B |-----------------(---------------------------------------------------------------|
F#|-----------------(---------------------------------------------------------------|
D |-----------------(---------------------------------------------------------------|
A |-----------------(---------------------------------------------------------------|
E |-2-2-2-2-2-2-2-2-(---------------3--2--2--2--2--2--2---------3--2--2--2--2--2--2-|
B |-0-0-0-0-0-0-0-0-(-0-3-1-0-3-1-0-1--0--0--0--0--0--0-0-3-1-0-1--0--0--0--0--0--0-|
   * * * *  * * * * 

B |---------------------------------------------------------------------------)|
F#|---------------------------------------------------------------------------)|
D |---------------------------------------------------------------------------)|
A |---------------------------------------------------------------------------)|
E |---------3--2--2--2--2--2--2---------3--2--2--2--2--2--2-3-3-3-3-3-6-6-6-6-)|
B |-0-3-1-0-1--0--0--0--0--0--0-0-3-1-0-1--0--0--0--0--0--0-1-1-1-1-1-4-4-4-4-)|
                                                            * * * * * * * * *

B |----------------------------------------------------------------------------------------|
F#|----------------------------------------------------------------------------------------|
D |---------------9-------------------------------------------------9----------------------|
A |-------9--10-------10---9--------------------------------9--10-------10---9-------------|
E |---------------------------------------------5------------------------------------------|
B |-0-0-0--0----0---0----0----1-1-1-1-1-1/3p4h3-------0-0-0--0----0---0----0---11111133333-|
    * * *  *    *   *    *    * * * * *         ♦     * * *  *    *   *    *
B |---------------------------------------------------------------------------------------------------|
F#|---------------------------------------------------------------------------------------------------|
D |----------------9-------------------------------------------------9--------------------------------|
A |-------9---10-------10---9--------------------------------9--10-------10---9-----------------------|
E |----------------------------------------------5------------------------------3-3-3-3-3-3-3-4-4-4-4-|
B |-0-0-0---0----0---0----0----1-1-1-1-1-1/3p4h3-------0-0-0--0----0---0----0---1-1-1-1-1-1-1-4-4-4-4-|
    * * *   *    *   *    *    * * * * *         ♦     * * *  *    *   *    *
B |---------------------------------------------------------------------------------------------------|
F#|---------------------------------------------------------------------------------------------------|
D |----------------9--------------------------------------------------9-------------------------------|
A |-------9---10-------10---9-------7---9---10-------9-------9---10-------10---9-------10---11-4p5h4--|
E |-------------------------------------------------------------------------------------------------7-|
B |-0-0-0---0----0---0----0---0-0-0---0---0----0-0-0---0-0-0---0----0---0----0---0-0-0----0-----------|
    * * *   *    *   *    *   * * *   *   *    * * *   * * *   *    *   *    *   * * *    *         ♦
B |----------------------------------------------------------------------------------------------------|
F#|----------------------------------------------------------------------------------------------------|
D |----------------9-------------------------------------------------9---------------------------------|
A |-------9---10-------10---9-------7---9---10------9-------9---10-------10---9\-----------------------|
E |--------------------------------------------------------------------------------3-3-3-3--3--6-6-6-6-|
B |-0-0-0---0----0---0----0---0-0-0---0---0---0-0-0---0-0-0---0----0---0----0------1-1-1-1--1--4-4-4-4-|
    * * *   *    *   *    *   * * *   *   *   * * *   * * *   *    *   *    *      * * * *  *  * * * *
   (x2)
B |(----------------------------------------------------------------------------)|
F#|(----------------------------------------------------------------------------)|
D |(----------------------------------------------------------------------------)|
A |(----------------------------------------------------------------------------)|
E |(--------3--2--2--2--2--2--2---------3--2--2--2--2--2--2-3-3-3-3--3--6-6-6-6-)|
B |(0-3-1-0-1--0--0--0--0--0--0-0-3-1-0-1--0--0--0--0--0--0-1-1-1-1--1--4-4-4-4-)|
                                                            * * * *  *  * * * *
B |---------------------------------------------------------------------------------------------------|
F#|---------------------------------------------------------------------------------------------------|
D |----------------9--------------------------------------------------9-------------------------------|
A |-------9---10-------10---9-------7---9---10-------9-------9---10-------10---9-------10---11-4p5h4--|
E |-------------------------------------------------------------------------------------------------7-|
B |-0-0-0---0----0---0----0---0-0-0---0---0----0-0-0---0-0-0---0----0---0----0---0-0-0----0-----------|
    * * *   *    *   *    *   * * *   *   *    * * *   * * *   *    *   *    *   * * *    *         ♦

B |------------------------------------------------------------------------------|
F#|------------------------------------------------------------------------------|
D |----------------9--------------------------------------------------9----------|
A |-------9---10-------10---9-------7---9---10-------9-------9---10-------10---9-|
E |------------------------------------------------------------------------------|
B |-0-0-0---0----0---0----0---0-0-0---0---0----0-0-0---0-0-0---0----0---0----0---|
    * * *   *    *   *    *   * * *   *   *    * * *   * * *   *    *   *    *   

B |---------------------------------------------------------------------------------------------------|
F#|---------------------------------------------------------------------------------------------------|
D |----------------9--------------------------------------------------9-------------------------------|
A |-------9---10-------10---9-------7---9---10-------9-------9---10-------10---9-------10---11-4p5h4--|
E |-------------------------------------------------------------------------------------------------7-|
B |-0-0-0---0----0---0----0---0-0-0---0---0----0-0-0---0-0-0---0----0---0----0---0-0-0----0-----------|
    * * *   *    *   *    *   * * *   *   *    * * *   * * *   *    *   *    *   * * *    *         ♦

B |-----------------------------------------------------------------------------------------------------|
F#|-----------------------------------------------------------------------------------------------------|
D |----------------9--------------------------------------------------9---------------------------------|
A |-------9---10-------10---9-------7---9---10-------9-------9---10-------10---9\-----------------------|
E |-------------------------------------------------------------------------------3-3-3-3-3-3-3-4-4-4-4-|
B |-0-0-0---0----0---0----0---0-0-0---0---0----0-0-0---0-0-0---0----0---0----0----1-1-1-1-1-1-1-4-4-4-4-|
    * * *   *    *   *    *   * * *   *   *    * * *   * * *   *    *   *    *   
B |-----------------------------------------------------------------------------------|
F#|---------------------------------------------------------•---•--•-----•---•--•--•--|
D |-9---11-12----17---12-16--11---9---11-12----17---12-16---9---11-12----17--12-16-11-|
A |-----------------------------------------------------------------------------------|
E |-----------------------------------------------------------------------------------|
B |-----------------------------------------------------------------------------------|

B |--------------------------------------------------------------------------------------|
F#|-•---•--•-----•----•--•---•---•---•--•-----•----•--•----•----•---•--•----•----•----•--|
D |-9---11-12----17---12-16--20--9---16-17----12---16-11--14----9---16-17---14---12---11-|
A |--------------------------------------------------------------------------------------|
E |--------------------------------------------------------------------------------------|
B |--------------------------------------------------------------------------------------|

B |--------------------------------------------------------------------------------------------------|
F#|--------------------------------------------------------------------------------------------------|
D |--------------------------------------------------------------------------------------------------|
A |--------------------------------------------------------------------------------------------------|
E |3--2--2--2--2--2--2---------3--2--2--2--2--2--2---------3--2--2--2--2--2--2---------3--2--2--2--2-|
B |1--0--0--0--0--0--0-0-3-1-0-1--0--0--0--0--0--0-0-3-1-0-1--0--0--0--0--0--0-0-3-1-0-1--0--0--0--0-|


B |---------------------------------------------------------------------------------------------------|
F#|---------------------------------------------------------------------------------------------------|
D |---------------------------------------------------------------------------------------------------|
A |---------------------------------------------------------------------------------------------------|
E |-3-3-3-3--3--6-6-6-6---------3--2--2--2--2--2--2---------3--2--2--2--2--2--2---------3--2--2--2--2-|
B |-1-1-1-1--1--4-4-4-4-0-3-1-0-1--0--0--0--0--0--0-0-3-1-0-1--0--0--0--0--0--0-0-3-1-0-1--0--0--0--0-|
    * * * *  *  * * * *

B |---------------------|
F#|---------------------|
D |---------------------|
A |---------------------|
E |-3-3-3-3--3--6-6-6-6-|
B |-1-1-1-1--1--4-4-4-4-|
    * * * *  *  * * * *


      **************************************************************
             
             (Text Translate)
             ♦ : harmonique artificielle 
             * : Palm mute
          (x2) : Repeat what is in parenthesis            
             / : Slid up
             \ : slid down
             p : pull off
             h : Hammer
             • : round trip ↑↓↑↓↑↓↑↓↑↓

     **************************************************************

            
            
Suggest correction
Creating personal tab
Creating personal tab
You can edit any tab online and save it as your Personal.

You can edit, replace or remove any tab part or add personal notes – all changes will be seen only by you.

Personal tabs can be accessed anytime from any device, even offline.
Learn more »
comments
print report bad tab
1 comment total.
+2 reply
kbaines 35 Mar 21, 2017 06:28 AM

Hell Yeah!

guest
You may want to rate the tab now too:
select rating
Wanna post a correction for this tab? Suggest correction