Oops, an error
Loading. Please wait.

Time Flies tab

version 2
version 2

Whole song

Interactive

4,777 views 6 this week
no commentswrite comment
1 2 3 4 5
3 more votes to show rating
add to favorites
×
Save as Personal and add changes to this tab that will be seen only by you. Learn more ›
×
You can save this tab as Personal to edit and correct it or add notes. All changes will be seen only by you. Learn more »
launch autoscroll
font size
0
reset
how to read this tab
guitar tuner
edit
Autoscroll
slow
fast
+/-
esc
set tempo
stop
  karabananakara@yahoo.ca


Vaya Con Dios - Time Flies


Tunning E A D G B E


Intro:
--------------------------------------------------------------------------------|
-------3--------------3-------------5-------------------------------------------|
---0-------0------0-------0-----0-------0-------0-------0-----------------------|
-----4---4----------4---4---------4---4-------4-------4-----2-2-2-2-2-2-2-------|
-2--------------3-------------5-------------3-------2-------2-2-2-2-2-2-2-------|
--------------------------------------------------------------------------------|

           Em                            Hmin
It's been such a funny day, I don't know why

Em                                          Hmin
Walking on an endless lane, life passing me by

   C                                      Em
Tomorrow is calling, but I'm dragging my feet

    C                                                Em
The skies are indecently clear but I can't stand the heat

..stumbling like a child


E|------------------------------------------------------------|
B|----------------------------3----3/5------------------------|
G|-----------------------0h2-4-2-4----------------------------|
D|------------------------------------------------------------|
A|------------------------------------------------------------|
E|------------------------------------------------------------|

tease me from inside..

E|---------------------------------------------------------------|
B|--------------------------3------------------------------------|
G|---------------------0h2-4-2-4-4/5-----------------------------|
D|---------------------------------------------------------------|
A|---------------------------------------------------------------|
E|---------------------------------------------------------------|

like yesterday..                   can't be taken away..

E|-----------------3-3-3p2p0---------------------------------------------|
B|--------------------------3-3/5-------------------------15b17~ x3------|
G|-----------------------------------------------------------------------|
D|-----------------------------------------------------------------------|
A|-----------------------------------------------------------------------|
E|-----------------------------------------------------------------------|


        G   D     C    G|--5/7-77-|                    G            D              A
You know, time flies,  D|--5/7-77-|
and the rebels, one day, they all go quiet

          Em             D             G         A        Em
Ain't no money, ain't nobody, that can buy you a peace of mind

          Em             D             G         A        Hmaj
Ain't no money, ain't nobody, that can buy you a peace of mind


Rhytam for solo:

| Em  | Hm  | Em  | Hm  | C   | Em  | C   | Em  |


  SOLO

E|-------------------------------------------------------------------------|
B|-------------------------------------------------------------------------|
G|----7-7/9-999\-----7-7/9~ -7h9p7-----------------------------------------|
D|-7h9------------7/9----------------9-9-----------------------------------|
A|----------------------------------9-8--7-5-------------------------------|
E|-------------------------------------------7(7)--------------------------|


E|-----------------------------------------------------------------------------|
B|----------------------------------15-15--15b(18)-17-15-----------------------|
G|----7-7/9-999\-----7-7/9~ ---15/16-----16-------------16\--------------------|
D|-7h9------------7/9----------------------------------------------------------|
A|-----------------------------------------------------------------------------|
E|-----------------------------------------------------------------------------|

E|-------------------------------------------------------------------|
B|-88888-8p7--88-8p7-------------------------------------------------|
G|-99999----9-------9-7-7/9------------------------------------------|
D|-------------------------9-9(9)------------------------------------|
A|-------------------------------------------------------------------|
E|-------------------------------------------------------------------|


E|-888888-8p7-8p7-----------12----------------------------------------------------|
B|-888888----8---8-10b(12)--15b(17)~ -x3------------------------------------------|
G|-999999-------------------------------------------------------------------------|
D|--------------------------------------------------------------------------------|
A|--------------------------------------------------------------------------------|
E|--------------------------------------------------------------------------------|

    end solo


           Em                                    Hm
The say you learn from your mistakes..      it's a lie

E|--------------------------------------------------------------------------|
B|--------------------------------------------------------------------------|
G|--------------------------------------------------------------------------|
D|--------------------------------------------------------------------------|
A|------------------------------------7h9p7h9p7\\sl listen------------------|
E|--------------------------------------------------------------------------|

      Em                              Hm
My redemption has been staged, numerous times

E|-------------------------------------------------------------------|
B|-------------------------------------------------------------------|
G|-------------------------------------------------------------------|
D|-7b(9)(9)r7~~ -----------------------------------------------------|
A|-------------------------------------------------------------------|
E|-------------------------------------------------------------------|

 C                                       Em
but the angels of passion, still taunt me in my sleep


E|-------------------------------------------------------------------|
B|-------------------------------------------------------------------|
G|-5-7-7b(9)-(9)r7-5-------------------------------------------------|
D|-------------------7/9~ \sl----------------------------------------|
A|-------------------------------------------------------------------|
E|-------------------------------------------------------------------|

      C                                         Em
They keep throwing petals and thorns, underneath my feet..


E|----------------8------------------------------------------------------|
B|--------------8--8-8------------------------------------15b(17) x3-----|
G|----------7/9-----9----------------------------------------------------|
D|-----------------------------------------------------------------------|
A|-----------------------------------------------------------------------|
E|-----------------------------------------------------------------------|


          Outro
E|------------------------------------------------------------------------------|
B|------3--------------3-------------5------------------------------------------|
G|--0-------0------0-------0-----0-------0-------0-------0----------------------|
D|----4---4----------4---4---------4---4-------4------ 4------------------------|
A|-2--------------3-------------5-------------3-------2-------------------------|
E|------------------------------------------------------------0-----------------|

    End!!!

            
            
Suggest correction
Creating personal tab
Creating personal tab
You can edit any tab online and save it as your Personal.

You can edit, replace or remove any tab part or add personal notes – all changes will be seen only by you.

Personal tabs can be accessed anytime from any device, even offline.
Learn more »
Give kudos to tab author, rate the tab!
1 2 3 4 5
comments
print report bad tab
guest
Wanna post a correction for this tab? Suggest correction