Oops, an error
Loading. Please wait.

Beautiful tab

by Velcro
251 views 1 this week
no commentswrite comment
1 2 3 4 5
3 more votes to show rating
add to favorites
×
Save as Personal and add changes to this tab that will be seen only by you. Learn more ›
×
You can save this tab as Personal to edit and correct it or add notes. All changes will be seen only by you. Learn more »
launch autoscroll
font size
0
reset
how to read this tab
guitar tuner
edit
Autoscroll
slow
fast
+/-
esc
set tempo
stop
Author
Difficulty
intermediate
BEAUTIFUL
By: Velcro

Bm           G                          D
Beautiful eyes you seem unreal
                          A
You seem to perfect for me
Bm               G                     D
Beautiful mind you are so real
                           A
You make my senses feel

Bm                         G
You came into my life
                              D
You took me by surprise
                       A
And I am so used to being alone
Bm                G                                    D
But I am so sure and you¡¯re the only cure
                 A
For this restless heart

CHORUS:
D               A
Be mine today
C                 G           D                   A
I'm yours forever and come what may
C                         G
Will have each other

Bm-G-Bm-G
E ------------------------------------------------------------|
B ------------------------------------------------------------|
G --11---12----15---16----17----15----------------------------|
D ------------------------------------------------------------|
A ------------------------------------------------------------|
E ------------------------------------------------------------|

Bm           G                          D
Beautiful she non-can compare
                    A
No one can have but stare
Bm           G                D
Beautiful face intimidating, you leave me
A
Yearning for your embrace
Bm                                          G
You make my dreams come true


                            D
I do anything for you
                     A
I want to be there by your side


Bm                         G
I need you that so fact
                                     D
I would go to hell and back
                          A
If that's what it takes to tame your heart

D                A
Be mine today
C                       G          D                 A
I am yours forever and come what may
C                       G
Will have each other
D                        G
You're beautiful in every way
D                         G
You're beautiful everyday
D
You're beautiful
 G
So Beautiful
D
Beautiful¡­
G
Beautiful¡­
SOLO:
E -------------------------------------------------------------------------------------------------------|
B ---------------------------------14^-------------------------------------------14^----9--10-----|
G 14(bend Full)--12h13-----------11h12~~~~~~~(slide down)------------------------|
D 14-----------------------------------------------------------------------------------------------------|
A -------------------------------------------------------------------------------------------------------|
E -------------------------------------------------------------------------------------------------------|


E ------------------10--10---------------11-----11^-----------------|
B -9--10--9----9---------------9------------------------------------|
G ------------------------------------------------------------------|
D ------------------------------------------------------------------|
A ------------------------------------------------------------------|
E ------------------------------------------------------------------|


E --------------------------------------------------------------------------------|
B ------9-------------------------------------------------------------------------|
G --9^------10(bend down)-----7--6--7--------4--3—4~~~~~~-----|
D --9-----------------------------------------------------------------------------|
A --------------------------------------------------------------------------------|
E --------------------------------------------------------------------------------|

E -----------------------------17------------------------------------|
B -11----12----------15----17^--------18-----------15----------------|
G -------------------------------------------------------------------|
D -------------------------------------------------------------------|
A -------------------------------------------------------------------|
E -------------------------------------------------------------------|

E -------------------------------------------------------------------|
B -14h13(3 times) ------12—13h12(3 Times)-----11------------------12-|
G -------------------------------------------------------------------|
D -------------------------------------------------12s--14--12-------|
A -------------------------------------------------------------------|
E -------------------------------------------------------------------|



Bm                         G
You came into my life
                              D
You took me by surprise
                       A
And I am so used to being alone


Bm                         G
I need you that so fact
                                     D
I would go to hell and back
                          A
If that¡¯s what it takes to tame your heart


D               A
Be mine today
C                 G           D                   A
I¡¯m yours forever and come what may
C                         G
Will have each other


D               A
Be mine today
C                 G           D                   A
I¡¯m yours forever and come what may
C                         G
Will have each other

this is my first tab hope you like it.. comments corrections email me www.rhuf06@yahoo.com

            
            
Suggest correction
Creating personal tab
Creating personal tab
You can edit any tab online and save it as your Personal.

You can edit, replace or remove any tab part or add personal notes – all changes will be seen only by you.

Personal tabs can be accessed anytime from any device, even offline.
Learn more »
Give kudos to tab author, rate the tab!
1 2 3 4 5
comments
print report bad tab
guest
You may want to rate the tab now too:
select rating
Wanna post a correction for this tab? Suggest correction