Oops, an error
Loading. Please wait.
We have Chord Pro version of Slither.
It's the closest thing you can get to the original song and it has interactive parts. Check out the tab »
×

Slither tab

version 7
version 7

Whole song

64 views 1 this week
no commentswrite comment
1 2 3 4 5
3 more votes to show rating
add to favorites
×
Save as Personal and add changes to this tab that will be seen only by you. Learn more ›
×
You can save this tab as Personal to edit and correct it or add notes. All changes will be seen only by you. Learn more »
launch autoscroll
font size
0
reset
how to read this tab
guitar tuner
backing track
0:00
0:00
edit
Autoscroll
slow
fast
+/-
esc
set tempo
stop
About this tab version
This tab includes both guitars from the original recording from Velvet Revolver. Was this info helpful? Yes No
Hi guys, this is my first tab, so be sure to suggest any improvement or mistakes along with songs to do next.
Hope you enjoy it!


Intro:
Guitars 1 & 2
|--------------|-------------|
|--------------|-------------|
|--7--10--12---|--7--8---7---|  x2
|--------------|-------------|
|--5--8---10---|--5--10--5---|
|--------------|-------------|

Pre Verse:

Main Riff 
Guitars 1 & 2
|-----------------------------------------------|
|-----------------------------------------------|
|-----------------------------------------------|  x4
|-----------------------------------------------| 
|--0--3-4--0--6-7--0--10--0--6-7--0--5--0--3-4--|
|--0--3-4--0--6-7--0--10--0--6-7--0--5--0--3-4--|

Solo 1 (Played on the fourth time of main riff)
Guitar 1
|-----------------------------------------------------|
|-----------------------13----------------------------|
|-----10-11----13-14----------13-14----12----10-11----|
|--12-------12-------12----12-------12----12-------12-|
|-----------------------------------------------------|
|-----------------------------------------------------|

Verse:

Main Riff 
Guitars 1 & 2
|-----------------------------------------------|
|-----------------------------------------------|
|-----------------------------------------------| x8
|-----------------------------------------------| 
|--0--3-4--0--6-7--0--10--0--6-7--0--5--0--3-4--|
|--0--3-4--0--6-7--0--10--0--6-7--0--5--0--3-4--|

Riff A (played on the fourth time)
Guitar 1
|-----------------------------------|
|-----------------------------------|
|-----------------------------------|
|--0-3-4-0-6-7-0-10-0-6-7-0-5-0-3-4-|
|-----------------------------------|
|-----------------------------------|

Chorus:

Chorus Riff
Guitar 1
|------------------------------------|------------------------------------|
|------------------------------------|------------------------------------|
|------------------------------------|------------------------------------|
|--0-3-4-0-6-7-0-10-0-6-7-0-5-0-3-4--|-0-4-5-0-5-7-0-10-0-7-9-0-5-7-0-4-5-|
|------------------------------------|------------------------------------|
|------------------------------------|------------------------------------|

|------------------------------------|------------------------------------|
|------------------------------------|------------------------------------|
|------------------------------------|------------------------------------|
|-0-4-5-0-5-7-0-10-0-7-9-0-5-7-0-5-4-|--0-3-4-0-6-7-0-10-0-6-7-0-5-0-3-4--|
|------------------------------------|------------------------------------|
|------------------------------------|------------------------------------|

Chorus Chords
Guitar 2
|------|------|------|------|
|------|------|------|------|
|--7-7-|--5-5-|--4-4-|--7-7-|
|--7-7-|--5-5-|--4-4-|--7-7-|
|--5-5-|--3-3-|--2-2-|--5-5-|
|------|------|------|------|

Pre Verse:

Main Riff 
Guitars 1 & 2
|-----------------------------------------------|
|-----------------------------------------------|
|-----------------------------------------------|  x4
|-----------------------------------------------| 
|--0--3-4--0--6-7--0--10--0--6-7--0--5--0--3-4--|
|--0--3-4--0--6-7--0--10--0--6-7--0--5--0--3-4--|

Solo 1 (Played on the fourth time of main riff)
Guitar 1
|-----------------------------------------------------|
|-----------------------13----------------------------|
|-----10-11----13-14----------13-14----12----10-11----|
|--12-------12-------12----12-------12----12-------12-|
|-----------------------------------------------------|
|-----------------------------------------------------|

Main Riff 
Guitars 1 & 2
|-----------------------------------------------|
|-----------------------------------------------|
|-----------------------------------------------| x8
|-----------------------------------------------| 
|--0--3-4--0--6-7--0--10--0--6-7--0--5--0--3-4--|
|--0--3-4--0--6-7--0--10--0--6-7--0--5--0--3-4--|

Riff B (played on the fourth time)
Guitar 1
|------------------------------------|
|------------------------------------|
|------------------------------------|
|------------------------------------|
|------------------------------------|
|--0-3-4-0-6-7-0-10-0-6-7-0-5-0-3-4--|

Chorus x2:

Chorus Riff
Guitar 1
|------------------------------------|------------------------------------|
|------------------------------------|------------------------------------|
|------------------------------------|------------------------------------|
|--0-3-4-0-6-7-0-10-0-6-7-0-5-0-3-4--|-0-4-5-0-5-7-0-10-0-7-9-0-5-7-0-4-5-|
|------------------------------------|------------------------------------|
|------------------------------------|------------------------------------|

|------------------------------------|------------------------------------|
|------------------------------------|------------------------------------|
|------------------------------------|------------------------------------|
|-0-4-5-0-5-7-0-10-0-7-9-0-5-7-0-5-4-|--0-3-4-0-6-7-0-10-0-6-7-0-5-0-3-4--|
|------------------------------------|------------------------------------|
|------------------------------------|------------------------------------|

Chorus Chords
Guitar 2
|------|------|------|------|
|------|------|------|------|
|--7-7-|--5-5-|--4-4-|--7-7-|
|--7-7-|--5-5-|--4-4-|--7-7-|
|--5-5-|--3-3-|--2-2-|--5-5-|
|------|------|------|------|

Bridge:

Drums and Amp Effects

Solo:

Solo
Guitar 1

Chorus Chords
Guitar 2
|------|------|------|------|
|------|------|------|------|
|--7-7-|--5-5-|--4-4-|--7-7-|
|--7-7-|--5-5-|--4-4-|--7-7-|
|--5-5-|--3-3-|--2-2-|--5-5-|
|------|------|------|------|


Verse:

Main Riff 
Guitars 1 & 2
|-----------------------------------------------|
|-----------------------------------------------|
|-----------------------------------------------| x4
|-----------------------------------------------| 
|--0--3-4--0--6-7--0--10--0--6-7--0--5--0--3-4--|
|--0--3-4--0--6-7--0--10--0--6-7--0--5--0--3-4--|

Riff C (played on the fourth time)
Guitar 1
|--------10---------------------------------------|
|-----13-------12-13----10----9-10----------------|
|-------------------------------------12----10-11-|
|--12-------12-------12----12------12----12-------|
|-------------------------------------------------|
|-------------------------------------------------|

Chorus x2:

Chorus Riff
Guitar 1
|------------------------------------|------------------------------------|
|------------------------------------|------------------------------------|
|------------------------------------|------------------------------------|
|--0-3-4-0-6-7-0-10-0-6-7-0-5-0-3-4--|-0-4-5-0-5-7-0-10-0-7-9-0-5-7-0-4-5-|
|------------------------------------|------------------------------------|
|------------------------------------|------------------------------------|

|------------------------------------|------------------------------------|
|------------------------------------|------------------------------------|
|------------------------------------|------------------------------------|
|-0-4-5-0-5-7-0-10-0-7-9-0-5-7-0-5-4-|--0-3-4-0-6-7-0-10-0-6-7-0-5-0-3-4--|
|------------------------------------|------------------------------------|
|------------------------------------|------------------------------------|

Chorus Chords
Guitar 2
|------|------|------|------|
|------|------|------|------|
|--7-7-|--5-5-|--4-4-|--7-7-|
|--7-7-|--5-5-|--4-4-|--7-7-|
|--5-5-|--3-3-|--2-2-|--5-5-|
|------|------|------|------|

Outro:

Main Riff 
Guitars 2
|-----------------------------------------------|
|-----------------------------------------------|
|-----------------------------------------------| x4
|-----------------------------------------------| 
|--0--3-4--0--6-7--0--10--0--6-7--0--5--0--3-4--|
|--0--3-4--0--6-7--0--10--0--6-7--0--5--0--3-4--|

Solo 1 
Guitar 1
|-----------------------------------------------------|
|-----------------------13----------------------------|
|-----10-11----13-14----------13-14----12----10-11----| x3
|--12-------12-------12----12-------12----12-------12-| 
|-----------------------------------------------------|
|-----------------------------------------------------|

Riff C (played on the fourth time)
Guitar 1
|--------10------------------------------------------|
|-----13-------12-13----10----9-10-------------------|
|-------------------------------------12----10-11----|
|--12-------12-------12----12------12----12-------12-|
|----------------------------------------------------|
|----------------------------------------------------|


Song Structure:
Intro
Pre Verse
Verse
Chorus
Pre Verse
Verse
Chorus x2
Bridge
Solo (with chorus chords x2)
Verse
Chorus x2
Outro

            
            
Suggest correction
Creating personal tab
Creating personal tab
You can edit any tab online and save it as your Personal.

You can edit, replace or remove any tab part or add personal notes – all changes will be seen only by you.

Personal tabs can be accessed anytime from any device, even offline.
Learn more »
Give kudos to tab author, rate the tab!
1 2 3 4 5
comments
print report bad tab
guest
You may want to rate the tab now too:
select rating
Wanna post a correction for this tab? Suggest correction