Oops, an error
Loading. Please wait.

The Last Fight bass

version 1
version 1

Whole song

5,659 views 3 this week
1 commentread comment
1 2 3 4 5
x 3
add to favorites
×
Save as Personal and add changes to this tab that will be seen only by you. Learn more ›
×
You can save this tab as Personal to edit and correct it or add notes. All changes will be seen only by you. Learn more »
launch autoscroll
font size
0
reset
guitar tuner
edit
Autoscroll
slow
fast
+/-
esc
set tempo
stop
Author
Tabbers playing skills
advanced ++
-----------------------------------------------------------------------------
			      The Last Fight - Velvet Revolver
-----------------------------------------------------------------------------


Tabbed By : algemar
e-mail: cjhin at swbell.net


Played by: Duff McKagan  
Tuning: Normal


NOTES:
The Verses, Prechoruses and the Fill are all played staccato. (Its marked) 



0:00    Intro	 		   x4
|---------77------|-77--77--77------| *Note
|*----------------|----------------*| This Part is played very softly, legato 
|*5---555---5---5-|---55--55--5---5*| mostly in time with the snare drum.
|-----------------|-----------------| 


0:21	Verse 1			(Staccato)		               x2
|-----------------|-----------------|-----------------|-----------------|
|*----------------|-----------------|-----------------|----------------*|
|*----------------|-2-2-2-2-2-2-2-0-|-----------------|-5-5-5-5-5-5-5-5*|
|-5-5-5-5-5-5-5-5-|-----------------|-3-3-3-3-3-3-3-3-|-----------------|


0:43	Prechorus		(Staccato)
|-----------------|-----------------|-----------------|
|-----------------|-5-5-5-5-5-5-5-5-|-5-5h7p5--5h7p5--|
|-7-7-7-7-7-7-7-7-|-----------------|-----------------|
|-----------------|-----------------|-----------------|


0:51	Chorus
|-----------------|-----------------|-----------------|-----------------|
|-----------------|-----------------|-----------------|---------------5-|
|-5-------5-5---5-|-7---7--77-7-----|-----------------|-5---5---5-5-5---|
|-----------------|-----------------|-3---3---3-3-5-7-|-----------------|

|-----------------|-----------------|-----------------|-----------------|
|-----------------|-----------9-7-4-|-5---5---5-7-5---|-----------------|
|-5---5---55-5--4-|-7---7--7--------|-----------------|-5---5-3----(3)--|
|-----------------|-----------------|-----------------|-----------------|


1:11	Fill			(Staccato)
|-----------------|-----------------|-----------------|-----------------|
|-----------------|-----------------|-----------------|-----------------|
|-----------------|-2-2-2-2-2-2-2-2-|-----------------|-5-5-5-5-5-5-5-5-|
|-5-5-5-5-5-5-5-5-|-----------------|-3-3-3-3-3-3-3-3-|-----------------|


1:22	Verse 2			(Staccato)		               x2
|-----------------|-----------------|-----------------|-----------------|
|*----------------|-----------------|-----------------|----------------*|
|*----------------|-2-2-2-2-2-2-2-2-|-----------------|-5-5-5-5-5-5-5-5*|
|-5-5-5-5-5-5-5-5-|-----------------|-3-3-3-3-3-3-3-3-|-----------------|


1:43	Prechorus
|-----------------|-----------------|-----------------|
|-----------------|-5-5-5-5-5-5-5-5-|-5-5h7p5--5h7p5--|
|-7-7-7-7-7-7-7-7-|-----------------|-----------------|
|-----------------|-----------------|-----------------|


1:51	Chorus
|-----------------|-----------------|-----------------|-----------------|
|-----------------|-----------------|-----------------|---------------5-|
|-5-------5-5---5-|-7---7--77-7-----|-----------------|-5---5---5-5-5---|
|-----------------|-----------------|-3---3---3-3-5-7-|-----------------|

|-----------------|-----------------|-----------------|-----------------|
|-----------------|-----------9-7-4-|-5---5---5-7-5---|-----------------|
|-5---5---55-5--4-|-7---7--7--------|-----------------|-5---5-3----(3)--|
|-----------------|-----------------|-----------------|-----------------|


2:12	Bridge/Interlude
				   x3
|-----------------|-----------------|
|*2---------------|----------------*|
|*----------------|----------------*|
|-----------------|-3---------------|


|-----------------|-----------------|-----------------|-----------------|
|-2---------------|-----------------|-2---------------|-----------------|
|-----------------|-----------------|-----------------|-3---------------|
|-----------------|-3---------------|-----------------|-----------------|

|-----------------|-----------------|-----------------|-----------------|
|-----------------|-----------------|-----------------|-----------------|
|-5-5-5-5-5-5-5-5-|-2-2-2-2-2-2-2-2-|-----------------|-5-5-5-5-5-5-5-5-|
|-----------------|-----------------|-3-3-3-3-3-3-3-3-|-----------------|


2:38	Solo
|-----------------|-----------------|-----------------|-----------------|
|-----------------|-----------------|-----------------|---------------5-|
|-5-------5-5---5-|-7---7--77-7-----|-----------------|-5---5---5-5-5---|
|-----------------|-----------------|-3---3---3-3-5-7-|-----------------|

|-----------------|-----------------|-----------------|-----------------|
|-----------------|-----------9-7-4-|-5---5---5-7-5---|-----------------|
|-5---5---55-5--4-|-7---7--7--------|-----------------|-5---5-3----(3)--|
|-----------------|-----------------|-----------------|-----------------|


2:59	Chorus  (Notice that its reverse order)
|-----------------|-----------------|-----------------|-----------------|
|-----------------|-----------9-7-4-|-5---5---5-7-5---|-----------------|
|-5---5---55-5--4-|-7---7--7--------|-----------------|-5---5-3----(3)--|
|-----------------|-----------------|-----------------|-----------------|

|-----------------|-----------------|-----------------|-----------------|
|-----------------|-----------------|-----------------|---5---6---7---5-|
|-5-------5-5---5-|-7---7--77-7-----|-----------------|-5---------------|
|-----------------|-----------------|-3---3---3-3-5-7-|-----------------|

	
	Outro		(fades out)					x?
|-----------------|-----------------|-----------------|-----------------|
|-----------------|-----------------|-----------------|---------------5-|
|-5-------5-5---5-|-7---7--77-7-----|-----------------|-5---5---5-5-5---|
|-----------------|-----------------|-3---3---3-3-5-7-|-----------------|



| q Quarter note
| e 8th note
| s 16th note
|
|
| /  slide up
| \  slide down
| h  hammer-on
| p  pull-off
| ~  vibrato
| +  harmonic
| x  Mute note
=================================================================

            
            
Suggest correction
Creating personal tab
Creating personal tab
You can edit any tab online and save it as your Personal.

You can edit, replace or remove any tab part or add personal notes – all changes will be seen only by you.

Personal tabs can be accessed anytime from any device, even offline.
Learn more »
Give kudos to tab author, rate the tab!
1 2 3 4 5
comments
print report bad tab
1 comment total.
0 reply
hazzmatazz 459 Nov 24, 2007 09:43 AM

Great tab dude thanks. Hope you don't mind if I borrow it for a good guitar pro version this song, thanks alot.

guest
You may want to rate the tab now too:
select rating
Wanna post a correction for this tab? Suggest correction