Oops, an error
Loading. Please wait.

Poison tab

by Venom
415 views 9 this week
no commentswrite comment
1 2 3 4 5
3 more votes to show rating
add to favorites
×
Save as Personal and add changes to this tab that will be seen only by you. Learn more ›
×
You can save this tab as Personal to edit and correct it or add notes. All changes will be seen only by you. Learn more »
launch autoscroll
font size
0
reset
how to read this tab
guitar tuner
edit
Autoscroll
slow
fast
+/-
esc
set tempo
stop
Author
Venom - Poison

Mail: degot88@gmail.com

Tuning:
C#5
G#4
E4
B3
F#3
C#3

Legend:
h - hammer on
p - pull off
x - palm muting

Start with
(Riff 1)
||---------------------------------------------------------------|
||--3---------------------------3--------------------------------|
||--0-2-------------2-----------0-2-------------------------0----|
||--0-2-----2-----5-2-----2-----0-2-----2-------5---4---3---0----|
||--0-0-0x0x0-0x0x3-0-0x0x0-0x0x0-0-0x0x0-0x0x0-3-0-2-0-1-0-0----|
||---------------------------------------------------------------| x2

Then the same thing without palm muting
(Riff 2)
||---------------------------------------------------------------|
||--3---------------------------3--------------------------------|
||--0-2-2-----------2-2---------0-2-2-----------------------0----|
||--0-2-2---------5-2-2---------0-2-2-----------5---4---3---0----|
||--0-0-0---------3-0-0---------0-0-0---------0-3-0-2-0-1-0-0----|
||---------------------------------------------------------------| x2

Then main riff
(Riff 3)
||---------------------------------------------------------------|
||---------------------------------------------------------------|
||---------------------------------------------------------------|
||--777--------777--------777--------777-------------------------|
||--555-0x3x4x-555-0x3x4x-555-0x3x4x-555-0x3x4x------------------|
||---------------------------------------------------------------| x2

||---------------------------------------------------------------|
||---------------------------------------------------------------|
||---------------------------------------------------------------|
||---------------------------------------------------------------|
||--222222-------222222-------222222-------222222----------------|
||--000000-0-3-0-000000-0-3-0-000000-0-3-0-000000-0-3-0----------|

Chorus
||---------------------------------------------------------------|
||--3------------------------------------------------------------|
||--0------------------------------------------------------------|
||--02222--52222--77777--55555-----------------------------------|
||--00000--30000--55555--33333-----------------------------------|
||---------------------------------------------------------------| x4

on 4th time
||--------------|
||--------------|
||--------------|
||--5555--4444--|
||--3333--2222--|
||--------------|

Before solo
(Riff 4)
||---------------------------------------------------------------|
||---------------------------------------------------------------|
||------7-----5-----4h5p4-7-4h5p4------7-----5-----4h5p4---------|
||------7-----5-----5-5-5-5-5-5-5------7-----5-----5-5-5-88------|
||--0x0x--0x0x--0x0x---------------0x0x--0x0x--0x0x------66------|
||---------------------------------------------------------------| x4

Order:
Riff 1
Riff 2
Riff 3
Verse
Riff 2 x2
Riff 3
Verse
Strum A chord
Riff 4
(Solo skipped sry)
Verse
Riff 2 x2
Riff 3
Verse
Riff 2 x2

            
            
Suggest correction
Creating personal tab
Creating personal tab
You can edit any tab online and save it as your Personal.

You can edit, replace or remove any tab part or add personal notes – all changes will be seen only by you.

Personal tabs can be accessed anytime from any device, even offline.
Learn more »
Give kudos to tab author, rate the tab!
1 2 3 4 5
comments
print report bad tab
guest
You may want to rate the tab now too:
select rating
Wanna post a correction for this tab? Suggest correction