Oops, an error
Loading. Please wait.

Un Minuto tab

version 2
version 2

Whole song

31 views 1 this week
no commentswrite comment
1 2 3 4 5
3 more votes to show rating
add to favorites
×
Save as Personal and add changes to this tab that will be seen only by you. Learn more ›
×
You can save this tab as Personal to edit and correct it or add notes. All changes will be seen only by you. Learn more »
launch autoscroll
font size
0
reset
how to read this tab
guitar tuner
edit
Autoscroll
slow
fast
+/-
esc
set tempo
stop
intro:
|--------------------------------|
|--------------------------------|
|-----------9999-----------6666--|
|-7777--777-9999-4444--444-6666--|
|-7777--777-7777-4444--444-4444--|
|-5555--555------2222--222-------|

|---------------------|-----------|
|---------------------|-----------|
|---------------------|-77-7--999-|
|-77-7----------------|-77-7--999-|
|-77-7------7-9p7-----|-55-5--777-|
|-55-5--7-10------9-7-|-----------|

|---------------------|---------------|-----------------|----------|
|---------------------|---------------|-----------------|----------|
|---------------------|-99-9----------|-----------------|--7~~-----|
|-77-7----------------|-99-9----------|-44-4--4-4p2-----|--7~~-----|
|-77-7------7-9p7-----|-77-7---9p7----|-44-4-------4p0--|--5~~-----|
|-55-5--7-10------9-7-|-------7---9-7-|-22-2------------|----------|

1er verso: (2 veces)
LA         MI        FA#       RE     MI
-------0-|-------0-|-------2-|-----2-|-----0-|
---2-----|---0-----|---2-----|---3---|---0---|
-----2---|-----1---|-----2---|-2-----|-1-----|
-2-------|-2-------|-4-------|-------|-------|
---------|---------|---------|-------|-------|
---------|---------|---------|-------|-------|
 
(2 veces)
 LA                    MI               FA#              RE
|---------------------|---------------|-----------------|----------|
|---------------------|---------------|-----------------|----------|
|---------------------|-99-9----------|-----------------|--7~~-----|
|-77-7----------------|-99-9----------|-44-4--4-4p2-----|--7~~-----|
|-77-7------7-9p7-----|-77-7---9p7----|-44-4-------4p0--|--5~~-----|
|-55-5--7-10------9-7-|-------7---9-7-|-22-2------------|----------|

coro:
  RE     MI    LA  DO# FA# 
---------------------------|
---------------------------|
-77777--99999------666-----|
-77777--99999--777-666-444-|
-55555--77777--777-444-444-|
---------------555-----222-|

RE     MI    LA  DO# FA# 
---------------------------|
---------------------------|
-77777--99999------666-----|
-77777--99999--777-666-444-|
-55555--77777--777-444-444-|
---------------555-----222-|

RE     MI    LA  DO# FA#    (solo con MI estupidez) 
---------------------------|------------------------|
---------------------------|------------------------|
-77777--99999------666-----|4444444-6666666---777-9-|
-77777--99999--777-666-444-|4444444-6666666---777-9-|
-55555--77777--777-444-444-|2222222-4444444---555-7-|
---------------555-----222-|------------------------|

INTERMEDIO:
|---------------------|---------------|-----------------|----------|
|---------------------|---------------|-----------------|----------|
|---------------------|-99-9----------|-----------------|--777-999-|
|-77-7----------------|-99-9----------|-44-4--4-4p2-----|--777-999-|
|-77-7------7-9p7-----|-77-7---9p7----|-44-4-------4p0--|--555-777-|
|-55-5--7-10------9-7-|-------7---9-7-|-22-2------------|----------|

|---------------------|---------------|-----------------|----------|
|---------------------|---------------|-----------------|----------|
|---------------------|-99-9----------|-----------------|--7~~-----|
|-77-7----------------|-99-9----------|-44-4--4-4p2-----|--7~~-----|
|-77-7------7-9p7-----|-77-7---9p7----|-44-4-------4p0--|--5~~-----|
|-55-5--7-10------9-7-|-------7---9-7-|-22-2------------|----------|

2er verso: (1 vez)
LA         MI        FA#       RE     MI
-------0-|-------0-|-------2-|-----2-|-----0-|
---2-----|---0-----|---2-----|---3---|---0---|
-----2---|-----1---|-----2---|-2-----|-1-----|
-2-------|-2-------|-4-------|-------|-------|
---------|---------|---------|-------|-------|
---------|---------|---------|-------|-------|
 
(1 vez)
 LA                    MI               FA#              RE
|---------------------|---------------|-----------------|----------|
|---------------------|---------------|-----------------|----------|
|---------------------|-99-9----------|-----------------|--7~~-----|
|-77-7----------------|-99-9----------|-44-4--4-4p2-----|--7~~-----|
|-77-7------7-9p7-----|-77-7---9p7----|-44-4-------4p0--|--5~~-----|
|-55-5--7-10------9-7-|-------7---9-7-|-22-2------------|----------|

coro:
  RE     MI    LA  DO# FA# 
---------------------------|
---------------------------|
-77777--99999------666-----|
-77777--99999--777-666-444-|
-55555--77777--777-444-444-|
---------------555-----222-|

RE     MI    LA  DO# FA# 
---------------------------|
---------------------------|
-77777--99999------666-----|
-77777--99999--777-666-444-|
-55555--77777--777-444-444-|
---------------555-----222-|

RE     MI    LA  DO# FA#    (solo con MI estupidez) 
---------------------------|------------------------|
---------------------------|------------------------|
-77777--99999------666-----|4444444-6666666---777-9-|
-77777--99999--777-666-444-|4444444-6666666---777-9-|
-55555--77777--777-444-444-|2222222-4444444---555-7-|
---------------555-----222-|------------------------|

SOLO:
|--4-7777p4-44-4-7777p4-44-4-7777p4-44-4-7777p4--||--7-9999p7-77-7-9999p7-77-7-9999p7-77-7-9999p7--|
|--4-7777p4-44-4-7777p4-44-4-7777p4-44-4-7777p4--||--7-9999p7-77-7-9999p7-77-7-9999p7-77-7-9999p7--|
|------------------------------------------------||------------------------------------------------|
|------------------------------------------------||------------------------------------------------|
|------------------------------------------------||------------------------------------------------|
|------------------------------------------------||------------------------------------------------|

|--77777/44-77777p44-77777b99999-7777-44--77777777--9999--7777--4444--77777--|
|--77777/44-77777p44-77777b99999-7777-44--77777777--9999--7777--4444--77777--|
|----------------------------------------------------------------------------|
|----------------------------------------------------------------------------|
|----------------------------------------------------------------------------|
|----------------------------------------------------------------------------|

verso 3:
MI                 SI                  FA# 
   y me guardo las ganas de verte otra vez
               DO#     FA#      MI
   prefiero llorar a reirme despues
                 SI               FA#
   tan solo un minuto y luego me ire
                DO#        FA#      MI 
   tras la madrugada un recuerdo seré


outro: se repite varias veces

uuuuuuuhhhhhhhhhhhh  uhhhhhhhhh  uhhhhhhhhhh

------------------------------------------------------------|
-2-4-4---4-2-4---2-4-4---4-2-4-2----------------------------|
---------------------------------4-4---4-3-4-3-1-1-----1-3-4|
------------------------------------------------------------|
------------------------------------------------------------|
------------------------------------------------------------|

            
            
Suggest correction
Creating personal tab
Creating personal tab
You can edit any tab online and save it as your Personal.

You can edit, replace or remove any tab part or add personal notes – all changes will be seen only by you.

Personal tabs can be accessed anytime from any device, even offline.
Learn more »
Give kudos to tab author, rate the tab!
1 2 3 4 5
comments
print report bad tab
guest
Wanna post a correction for this tab? Suggest correction