Oops, an error
Loading. Please wait.

Fixed At Zero tab

version 2
version 2

Whole song

Interactive

2,778 views 6 this week
no commentswrite comment
1 2 3 4 5
2 more votes to show rating
add to favorites
×
Save as Personal and add changes to this tab that will be seen only by you. Learn more ›
×
You can save this tab as Personal to edit and correct it or add notes. All changes will be seen only by you. Learn more »
launch autoscroll
font size
0
reset
how to read this tab
guitar tuner
edit
Autoscroll
slow
fast
+/-
esc
set tempo
stop
Author
basically this is the lead part plus some rhythm


INTRO update credit goes to the album tab by ChemyVamp

E|-19-15----19-15----19-15----19-15----19-15----20-|
B|-------17-------17-------17-------17-------17----|
G|-------------------------------------------------|
D|-------------------------------------------------|
A|-------------------------------------------------|
D|-------------------------------------------------|

E|-15----20-15----20-15----20-15----20-15----20-15-|
B|----17-------17-------17-------17-------17-------|
G|-------------------------------------------------|
D|-------------------------------------------------|
A|-------------------------------------------------|
D|-------------------------------------------------|

E|----19-15----19-15----19-15----19-15----19-15----|
B|-17-------17-------17-------17-------17-------17-|
G|-------------------------------------------------|
D|-------------------------------------------------|
A|-------------------------------------------------|
D|-------------------------------------------------|

E|-20-15----20-15----20-14----20-14----20-14-15-17-|
B|-------17-------17-------17-------17-------------|
G|-------------------------------------------------|
D|-------------------------------------------------|
A|-------------------------------------------------|
D|-------------------------------------------------|


VERSE

This doesn't make much sense. Think far out but I'm still locked...

...in
E|-15~~~~-|-13~~~~-|
B|--------|--------|
G|--------|--------|
D|--------|--------|
A|--------|--------|
D|--------|--------|

I'm still lost, walk in circles. The floor swallowed me up...
Play INTRO PART

...whole. There's nowhere to go.
E|-15~~~~-|-19~~~~-|-19-19-19-19-19*~~~-| *-artificial harmonics
B|--------|--------|--------------------|
G|--------|--------|--------------------|
D|--------|--------|--------------------|
A|--------|--------|--------------------|
D|--------|--------|--------------------|


CHORUS

E|-----------------|-----------------|-----------------|-----------------| x3
B|-----------------|-----------------|-----------------|-----------------|
G|-5-5-5-5-5-5-5-5-|-7-7-7-7-7-7-7-7-|-----------------|-----------------|
D|-5-5-5-5-5-5-5-5-|-7-7-7-7-7-7-7-7-|-7-7-7-7-7-7-7-7-|-7-7-7-7-7-7-7-7-|
A|-3-3-3-3-3-3-3-3-|-5-5-5-5-5-5-5-5-|-7-7-7-7-7-7-7-7-|-7-7-7-7-7-7-7-7-|
D|-----------------|-----------------|-7-7-7-7-7-7-7-7-|-7-7-7-7-7-7-7-7-|

E|-----------------|-----------------|
B|-----------------|-----------------|
G|-5-5-5-5-5-5-5-5-|-7-7-7-7-7-7-7-7-|
D|-5-5-5-5-5-5-5-5-|-7-7-7-7-7-7-7-7-|
A|-3-3-3-3-3-3-3-3-|-5-5-5-5-5-5-5-5-|
D|-----------------|-----------------|


Repeat VERSE except last part is this:

...ends. There's nowhere to go.
E|-15~~~~-|-19~~--19*~~---|
B|--------|---------------|
G|--------|---------------|
D|--------|---------------|
A|--------|---------------|
D|--------|---------------|


Repeat CHORUS


BRIDGE (you can hear this in the left pan)

E|-------------------------------------|-----------------------------------|
B|---------R-------------R-------------|---------R-------------R-----------|
G|-9-9-9-9-E-12-12-12-12-E-16-16-16-16-\-9-9-9-9-E-12-12-12-12-E-17-\-16-\-|
D|-x-x-x-x-S--x--x--x--x-S--x--x--x--x-|-x-x-x-x-S--x--x--x--x-S--x----x---|
A|-7-7-7-7-T-10-10-10-10-T-14-14-14-14-\-7-7-7-7-T-10-10-10-10-T-15-\-14-\-|
D|-------------------------------------|-----------------------------------|

E|-------------------------------------------------|
B|-------------------------------------------------|
G|-14-14-14-14-14-14-14-14-14-14-14-14-14-14-14-14-|
D|--x--x--x--x--x--x--x--x--x--x--x--x--x--x--x--x-|
A|-12-12-12-12-12-12-12-12-12-12-12-12-12-12-12-12-|
D|-------------------------------------------------|

E|-------------------------------------------------|
B|-------------------------------------------------|
G|-11-11-11-11-11-11-11-11-11-12-12-12-12-12-12-12-\
D|--x--x--x--x--x--x--x--x--x--x--x--x--x--x--x--x-|
A|--9--9--9--9--9--9--9--9--9-10-10-10-10-10-10-10-\
D|-------------------------------------------------|

E|-------------------------------------|-----------------------------------|
B|---------R-------------R-------------|---------R-------------R-----------|
G|-9-9-9-9-E-12-12-12-12-E-16-16-16-16-\-9-9-9-9-E-12-12-12-12-E-17-\-16-\-|
D|-x-x-x-x-S--x--x--x--x-S--x--x--x--x-|-x-x-x-x-S--x--x--x--x-S--x----x---|
A|-7-7-7-7-T-10-10-10-10-T-14-14-14-14-\-7-7-7-7-T-10-10-10-10-T-15-\-14-\-|
D|-------------------------------------|-----------------------------------|

E|-------------------------------------------------|
B|-------------------------------------------------|
G|-14-14-14-14-14-14-14-14-14-14-14-14-14-14-14-14-/
D|--x--x--x--x--x--x--x--x--x--x--x--x--x--x--x--x-|
A|-12-12-12-12-12-12-12-12-12-12-12-12-12-12-12-12-/
D|-------------------------------------------------|

E|-------------------------------------------------|
B|-------------------------------------------------|
G|-16-16-16-16-16-16-16-16-16-16-16-16-16-16-16-16-|
D|--x--x--x--x--x--x--x--x--x--x--x--x--x--x--x--x-|
A|-14-14-14-14-14-14-14-14-14-14-14-14-14-14-14-14-|
D|-------------------------------------------------|

E|-------------------------------------------------|
B|-------------------------------------------------|
G|-20-20-20-20-20-20-20-20-20-20-20-20-20-20-20-20-|
D|--x--x--x--x--x--x--x--x--x--x--x--x--x--x--x--x-|
A|-18-18-18-18-18-18-18-18-18-18-18-18-18-18-18-18-|
D|-------------------------------------------------|

CHORUS

E|-----------|-----------|----------------|
B|-----------|-----------|----------------|
G|-5~~~------|-7~~~------|----------------|
D|-5~~~------|-7~~~------|-7~~~~~~~~------|
A|-3~~~------|-5~~~------|-7~~~~~~~~------|
D|-----------|-----------|-7~~~~~~~~------|

E|-----------------|-----------------|-----------------|-----------------|
B|-----------------|-----------------|-----------------|-----------------|
G|-5-5-5-5-5-5-5-5-|-7-7-7-7-7-7-7-7-|-----------------|---------R-------|
D|-5-5-5-5-5-5-5-5-|-7-7-7-7-7-7-7-7-|-7-7-7-7-7-7-7-7-|-7-7-7-7-E-------|
A|-3-3-3-3-3-3-3-3-|-5-5-5-5-5-5-5-5-|-7-7-7-7-7-7-7-7-|-7-7-7-7-S-------|
D|-----------------|-----------------|-7-7-7-7-7-7-7-7-|-7-7-7-7-T-------|

E|-----------------|-----------------|-----------------|-----------------|
B|-----------------|-----------------|-----------------|-----------------|
G|-5-5-5-5-5-5-5-5-|-7-7-7-7-7-7-7-7-|-----------------|-----------------|
D|-5-5-5-5-5-5-5-5-|-7-7-7-7-7-7-7-7-|-7-7-7-7-7-7-7-7-|-7-7-7-7-7-7-7-7-|
A|-3-3-3-3-3-3-3-3-|-5-5-5-5-5-5-5-5-|-7-7-7-7-7-7-7-7-|-7-7-7-7-7-7-7-7-|
D|-----------------|-----------------|-7-7-7-7-7-7-7-7-|-7-7-7-7-7-7-7-7-|

E|-----------------|-----------------|
B|-----------------|-------------R---|
G|-5-5-5-5-5-5-5-5-|-7-7-7-7-7-7-E---|
D|-5-5-5-5-5-5-5-5-|-7-7-7-7-7-7-S---|
A|-3-3-3-3-3-3-3-3-|-5-5-5-5-5-5-T---|
D|-----------------|-----------------|


OUTRO

Repeat INTRO 2x

and play the last
E|-20--14------20--14-----|
B|---------17----------17-|
G|------------------------|
slower

            
            
Suggest correction
Creating personal tab
Creating personal tab
You can edit any tab online and save it as your Personal.

You can edit, replace or remove any tab part or add personal notes – all changes will be seen only by you.

Personal tabs can be accessed anytime from any device, even offline.
Learn more »
Give kudos to tab author, rate the tab!
1 2 3 4 5
comments
print report bad tab
guest
You may want to rate the tab now too:
select rating
Wanna post a correction for this tab? Suggest correction