Oops, an error
Loading. Please wait.

Fixed At Zero album tab

version 1
version 1

Album

Whole song

Interactive

10,866 views 1 this week
no commentswrite comment
1 2 3 4 5
x 9
add to favorites
×
Save as Personal and add changes to this tab that will be seen only by you. Learn more ›
×
You can save this tab as Personal to edit and correct it or add notes. All changes will be seen only by you. Learn more »
launch autoscroll
font size
0
reset
how to read this tab
guitar tuner
edit
Autoscroll
slow
fast
+/-
esc
set tempo
stop
Author
==========================
Album:  | Fixed At Zero
Band:   | VersaEmerge
Label:  | Fueled By Ramen
Year:   | 2010
Tuning: | Drop D
==========================

*Tracklisting:
 1. Figure It Out
 2. Mind Reader
 3. Fixed At Zero
 4. You'll Never Know
 5. Stranger
 6. Redesign Me
 7. Fire (Aim Your Arros High)
 8. Up There
 9. Your Own LoV.E.
10. Mythology
11. Lost Tree

*Bonus Tracks:
12. Father Sky (Not Tabbed Yet)
13. Let Down (Not Tabbed Yet)

I will work on the bonus tracks later... and i don't think i'll do the acoustic ones.


================
1.Figure it out
================

This song has no lead guitar parts so here are the chords

Intro: clean guitar
e|--55555555-8--44444444-|
B|--66666666-10-66666666-|
G|--77777777-10-66666666-|
D|--77777777-10-66666666-|
A|--55555555-8--44444444-|
D|-----------------------|

Verses: with distortion (a second guitar plays the full chords from the intro)
e|-----------------------|
B|-----------------------|
G|--77777777-10-66666666-|
D|--77777777-10-66666666-|
A|--55555555-8--44444444-|
D|-----------------------|

Pre-Chorus:

e|------------------|
B|------------------|
G|-5555555555555555-|
D|-5555555555555555-|
A|-3333333333333333-|
D|------------------|
PM         ........

Chorus: (if you know them you can play the full chords instead of the powerchords but in
album version they play them like thiks)

e|-------------------------------------------------------|
B|-------------------------------------------------------|
G|-44444-------------77776666-99999999-1212121212121212--|
D|-44444-44444-55555-77777777-99999999-1212121212121212--|
A|-22222-44444-55555-55554555-77777777-1010101010101010--|
D|-------44444-55555-------------------------------------|
The last chords are number 10's, 12's and 11's, you can play the 11's if you want
e|-------------------------------------------------------|
B|--------------------------------------------(11111111)-|
G|-44444-------------77776666-99999999-1212121212121212--|
D|-44444-44444-55555-77777777-99999999-1212121212121212--|
A|-22222-44444-55555-55554555-77777777-1010101010101010--|
D|-------44444-55555-------------------------------------|

Now repeat it all and then go to the bridge

Bridge:
idk about the strumming pattern, just listen to the song. but here are the chords.
e|-------------------|
B|-------------------|
G|-------------------|
D|-0-3-2-5--0-3-2-1--|
A|-0-3-2-5--0-3-2-1--|
D|-0-3-2-5--0-3-2-1--|

WHYY CAN'T YOUUUUUUUU...
e|-------|
B|-------|
G|-------|
D|-0-2-1-|
A|-0-2-1-|
D|-0-2-1-|

WITH A TWIIIIIIIIST
e|------------------|
B|------------------|
G|-7777777766666666-
D|-7777777766666666-
A|-5555555544444444-
D|------------------
YOUU SAAAYYYY THAAT IIIII FOOOOOR
e|------------------|
B|------------------|
G|-7777777766666666-
D|-7777777766666666-
A|-5555555544444444-
D|------------------

e|-----------------|
B|-----------------|
G|-55555555x-------|
D|-55555555x11111--|
A|-33333333x11111--|
D|---------x11111--|

Repeat the chorus like 2 times idr

and you end with a Dm chord.


Now there are actually some lead parts on the bridge and i tried my best so here's what 
got


e|---------------------------------|
B|--7-----7-6-----6-5-----5-4------|
G|----7-------7-------5-------5----|
D|------9-------7-------6-------5--|
A|---------------------------------|
D|---------------------------------|
Twice
then

e|---------------------------|
B|-10------10-9-------8------|
G|----10-7------7-9-7---8----|
D|------------------------8--|
A|---------------------------|
D|---------------------------|

________________________________________________________________________

=============
2.Mind Reader
=============
Intro/Verses:
e|----------------------------------------------|
B|--888888888-8888888---------------------------|
G|--999999999-9999999-999999999-9-9-9-9-9-9-9---|
D|--xxxxxxxxx-xxxxxxx-777777777-9-9-9-9-9-9-9---|
A|--777777777-xxxxxxx-888888888-10101010101010--|
D|------------7777777---------------------------|

A second guitar plays this next riff everytime sierra sings "hey mind reader"
e|---------------------|
B|-12------------------|
G|----12---------------|
D|-------14------------|
A|----------14-10-(7)--|
D|---------------------|

Pre-Chorus: TO THROW THIS UP AND AAAWAAAAAAAYYY
(Strum these chords)
e|-----------------|
B|-----------------|
G|-----------------|
D|-3-------0---5---|
A|-3-------0---5---|
D|-3-------0---5---|

Chorus:
e|----------------------------------------------|
B|----------------------------------------------|
G|-99999999-1010101010101010--------------------|
D|-77777777-7-7-7-7-7-7-7-7---0000000000000000--|
A|-77777777-8-8-8-8-8-8-8-8---0000000000000000--|
D|-77777777-7-7-7-7-7-7-7-7---0000000000000000--| x2

Pre-Verse:
e|--------12-----12--|
B|-----13----13------|
G|--14---------14----|
D|-------------------|
A|-------------------|
D|-------------------| x3

Repeat everything form the verses to the pre-verse now for the bridge it goes like this:

Guitar 1:
e|------------------------|
B|------------------------|
G|--9v~--9v~--12v~--10v~--|
D|--10v~-9v~--10v~--12v~--|
A|------------------------|
D|------------------------|
Play that^ twice and now
"START SPEEAAKINNG SAY WHAT WE MEEAAAN NO
e|--------------------------------------------------------------|
B|--------------------------------------------------------------|
G|-9-9-9-9-9-9-9-9--99999999-1212121212121212-1010101010101010--|
D|-1010101010101010-99999999-1010101010101010-1212121212121212--|
A|--------------------------------------------------------------|
D|--------------------------------------------------------------|
LIES TUCKED IN BETWEEEN OOUR TEEEEEEETH
e|---------------------------|
B|---------------------------|
G|--10--------7------13------|
D|--X--(X16)--X-(X8)-X-(X7)--|
A|--8---------5------11------|
D|---------------------------|

Guitar 2:
"START SPEAAKIING SAAY WHAAT WEE MEEAAN
e|------------------------------------------------------|
B|------------------------------------------------------|
G|------------------------------------------------------|
D|------------------------------------------------------|
A|------------------------------------------------------|
D|-77777777-66666666-1010101010101010-1212121212121212--|

e|-----------------|
B|-----------------|
G|-----------------|
D|-3-------0-------|
A|-3-(x16)-0-(x15)-|
D|-3-------0-------|

Now right before the final chorus when the whole  band kicks in you play this chord
e|---|
B|---|
G|---|
D|-0-|
A|-0-|
D|-0-|

and then you repeat the chorus a bunch of times
then as an outro you play these 3 chords

e|-------|
B|-8-8-8-|
G|-9-9-9-|
D|-x-x-x-|
A|-7-x-8-|
D|---7---|

oooh in the first half of the bridge there's another quiet guitar that plays the
pre-verse a.k.a., this:
e|--------12-----12--|
B|-----13----13------|
G|--14---------14----|
D|-------------------|
A|-------------------|
D|-------------------|
and when it goes START SPEEAAAKIING SAAY WHAAAT WEE MEEAN it stops playing :D

_____________________________________________________________________________

===============
3.Fixed At Zero
===============

-*GUITAR 1
Intro: There are 3 different ways to play it
**1This part is very tricky so hopefully i got it right... oh btw you need some
Chorus/octave fx here.
e|-7---------8------------------|
B|---8--(x5)---8--(x6 i think)--|
G|-----9---------9--------------|
D|------------------------------|
A|------------------------------|
D|------------------------------|

e|-7---------8--------8-----8-----8--------7-|
B|---8--(x5)---8--(x2---7-----7-----7---10---|
G|-----9---------9--------9-----9-----9------|
D|-------------------------------------------|
A|-------------------------------------------|
D|-------------------------------------------|
**2 apparently this is how blake plays it live
e|-19-15-0-(x5)-20-15-0-(x6)-19-15-0-(x5)-20-15-0-(x2)-20-14-0-20-14-0-20-14-0-15-17-|
B|-----------------------------------------------------------------------------------|
G|-----------------------------------------------------------------------------------|
D|-----------------------------------------------------------------------------------|
A|-----------------------------------------------------------------------------------|
D|-----------------------------------------------------------------------------------|
**3
e|-19-15----(x5)-20-15----(x6)-19-15----(x5)-20-15----(x2)-20-14----20-14----20-14----15-17--|
B|-------17------------17------------17------------17------------17-------17-------17--------|
G|-------------------------------------------------------------------------------------------|
D|-------------------------------------------------------------------------------------------|
A|-------------------------------------------------------------------------------------------|
D|-------------------------------------------------------------------------------------------|

Verse: "but i'm still locked in."
you could do some tremollo picking just for the lulz.

e|--15~-13~-|
B|----------|
G|----------|
D|----------|
A|----------|
D|----------|

I'M STILL LOOOOOOST... in this part you play the intro again

"up whooooooole"
again, use some tremollo picking if you want
e|--15~-19~-|
B|----------|
G|----------|
D|----------|
A|----------|
D|----------|

The chorus has no lead

in the Pre-verse there's no lead

the second verse is the same as the first one.

Bridge:
Bridge:
e|-----------------------------------------------------------------------|
B|-----------------------------------------------------------------------|
G|--9999--12121212--161616169999--12121212--17-16-14-------10-----12-----|
D|--xxxx--x-x-x-x---x-x-x-x-xxxx--x-x-x-x---x--x--x--(x16)-x-(x8)-x-(x8)-|
A|--7777--10101010--141414147777--10101010--15-14-12-------9------10-----|
D|-----------------------------------------------------------------------|

e|------------------------------------------------------------------|
B|------------------------------------------------------------------|
G|--9999--12121212--161616169999--12121212--17-16-14-------16-------|
D|--xxxx--x-x-x-x---x-x-x-x-xxxx--x-x-x-x---x--x--x--(x16)-x--(x32)-|
A|--7777--10101010--141414147777--10101010--15-14-12-------14-------|
D|------------------------------------------------------------------|


There's no lead till the outro that goes like the intro but with a variation, here it is
outro: even trickier than the intro

e|-7---------8------------------|
B|---8--(x5)---8--(x6 i think)--|
G|-----9---------9--------------|
D|------------------------------|
A|------------------------------|
D|------------------------------|

e|-7---------8--------8------8------8-------|
B|---8--(x5)---8--(x2---7------7-10---7-10--|
G|-----9---------9--------9-----------------|
D|------------------------------------------|
A|------------------------------------------|
D|------------------------------------------|

that's it

now the Rhythm is gonna be easier.

-*GUITAR 2
Intro: chords are these
just listen to the song to figure strumming
e|--7-7---|
B|--8-8---|
G|--9-9---|
D|--9-10--|
A|--7-7---|
D|--------|


Verses:
e|--7-7---|
B|--8-8---|
G|--9-9---|
D|--9-10--|
A|--7-7---|
D|--------|

"LOCKED IN"

e|-----|
B|-----|
G|-----|
D|-5-3-|
A|-5-3-|
D|-5-3-|


I'M STILL LOOOOOST WAAALKING CIRCLEEESS
e|--7-7---|
B|--8-8---|
G|--9-9---|
D|--9-10--|
A|--7-7---|
D|--------|

e|-----|
B|-----|
G|---4-|
D|-5-4-|
A|-5-2-|
D|-5---|

Chorus:

e|---------|
B|---------|
G|--5-7----|
D|--5-7-7--|x4
A|--3-5-7--|
D|------7--|

the forth time don't play the 7's

Pre-Verse: just strum this chord

e|-----|
B|--8--|
G|--9--|
D|--x--|
A|--7--|
D|-----|

Play the second verse exactly the same way you played the first and then the chorus again
for the bridge part you can either play the lead part OR you could play some chords,
try to listen to the moment they should change

First time the last A powerchord lasts longer and you don't play the last B power chord, 
the second time you play it exactly like ths:
e|----------------------------------------------------------|
B|----------------------------------------------------------|
G|--9999--9999--9-9-9-9--9999--9999--9--9----------4--------|
D|--9999--9999--10101010-9999--9999--10-10-7-------4-(x32)--|
A|--7777--7777--7-7-7-7--7777--7777--7--7--7-(x16)-2--------|
D|-----------------------------------------7----------------|

Now play the chorus chords once in a clean channel
and after that in the "always hissing right in my ear..." strum this chord

e|-----|
B|--8--|
G|--9--|
D|--x--|
A|--7--|
D|-----|

now stop and the full band kicks in, here you play well, the rest of the chorus but when
sings "i'm fixed at zero" strum this chord

e|-----|
B|--7--|
G|--7--|
D|--x--|
A|--5--|
D|-----|

stops and then the intro kicks in again and you got it.

_____________________________________________________________________

===================
4.You'll Never Know
===================
There's no guitar till the pre-chorus where you strum these chords

e|--------|
B|-4---6--|
G|-5---7--|
D|-6---8--|
A|-6---8--|
D|--------|

Chorus:
the guitar in this is really hard to hear but i think he plays these chords, listen to 
song

e|-----------|
B|-----------|
G|-----------|
D|-7---2--0--|
A|-7---2--0--|
D|-7---2--0--| x2

but iiiit woooon't shooww

e|-5----8----3--|
B|-6----10---5--|
G|-7----10---5--|
D|-7----10---5--|
A|-5----8----3--|
D|--------------| x2

For the second verse you just strum these chords

e|-3--0------|
B|-4--1--3---|
G|-5--2--3---|
D|-5--2--5---|
A|-3--0--5---|
D|------(5)--|

then repeat the pre-chorus and the chorus

Bridge:
I WAS SMIILING LIIKE AA LIIIIIIOOOON
e|-3-xx3-xx3-xx3-xx3-xx3-xx3-xx335-xx5-xx5-xx5-xx5-xx5-xx5-xx55--|
B|-5-xx5-xx5-xx5-xx5-xx5-xx5-xx556-xx6-xx6-xx6-xx6-xx6-xx6-xx66--|
G|-4-xx4-xx4-xx4-xx4-xx4-xx4-xx445-xx5-xx5-xx5-xx5-xx5-xx5-xx55--|
D|---------------------------------------------------------------|
A|---------------------------------------------------------------|
D|---------------------------------------------------------------|

e|-3-xx3-xx3-xx3-xx3-xx3-xx3-xx335-xx5-xx5-xx55-55-57777----|
B|-5-xx5-xx5-xx5-xx5-xx5-xx5-xx556-xx6-xx6-xx66-66-68888----|
G|-4-xx4-xx4-xx4-xx4-xx4-xx4-xx445-xx5-xx5-xx55-55-57777----|
D|----------------------------------------------------------|
A|----------------------------------------------------------|
D|----------------------------------------------------------|

Solo:
Guitar 1:

e|----------------------------------------------------------------------------------|
B|------13------13------12------12-----12------10-----10-----10------12------13-----|
G|-9/10----9/10----9/10----9/10---9/10----9/10---9/10---9/10----9/10----9/10---9/10-|
D|----------------------------------------------------------------------------------|
A|----------------------------------------------------------------------------------|
D|----------------------------------------------------------------------------------|
Twice and the second time you end the solo on the 9th fret of the G string.


Guitar 2:

e|-----------|
B|-----------|
G|-----------|
D|-7---2--0--|
A|-7---2--0--|
D|-7---2--0--|
then
e|-----------|
B|-----------|
G|-----------|
D|-7---5--0--|
A|-7---5--0--|
D|-7---5--0--|


The rest of the song is just the chorus so just repeat it as needed and you end
with a Cmajor chord

_____________________________________________________________________


==========
5.Stranger
==========

*Intro:
Play these parts twice
e|--5-----5-----5-----5-----5-----5-----5-----5------|
B|----5-----5-----5-----5-----6-----6-----6-----6----|
G|------5-----5-----5-----5-----5-----5-----5-----5--|
D|--7-----7-----7-----7-----7-----7-----7-----7------|
A|---------------------------------------------------|
D|---------------------------------------------------|

e|--5-----5-----5-----5-----5-----7-----8-----7------|
B|----8-----8-----8-----8-----6-----6-----6-----6----|
G|------5-----5-----5-----5-----5-----5-----5-----5--|
D|--7-----7-----7-----7-----7-----7-----7-----7------|
A|---------------------------------------------------|
D|---------------------------------------------------|

Then play these
e|--12-------12-------12-------12-------10-------10-------10-------10-------|
B|-----10-------10-------10-------10-------10-------10-------10-------10----|
G|--------12-------12-------12-------12-------10-------10-------10-------10-|
D|--12-------12-------12-------12-------8--------8--------8--------8--------|
A|--------------------------------------------------------------------------|
D|--------------------------------------------------------------------------|

e|--5-----5-----6-----5-----6-----6-----8-----6------6--5--|
B|----6-----6-----6-----6-----6-----6-----6-----6----6--5--|
G|------7-----7-----7-----7-----7-----7-----7-----7--7--6--|
D|--7-----7-----7-----7-----8-----8-----8-----8------8--7--|
A|---------------------------------------------------------|
D|---------------------------------------------------------|
then strum the last chord like 12 times and go to the chorus

*Chorus:
There are like 3 ways you can play the chorus but it's pm the same
1*-One of them is the way they play it acoustic(i really like playing it like this)
e|-----5----------------------------------------------------------------------|
B|-----6--5-(move to the 6th fret here too, listen to the song to get it :D)--|
G|--5--7--6-------------------------------------------------------------------|
D|--3--7--7-------------------------------------------------------------------|
A|--3--5--7-------------------------------------------------------------------|
D|--3-------------------------------------------------------------------------|
Strum those chords twice and then play these chords
e|-----5--3--5-----|--------|
B|-----6--5--6--5--|--------|
G|--5--7--5--7--6--|--5--4--|
D|--3--7--5--7--7--|--3--2--|
A|--3--5--3--5--7--|--3--2--|
D|--3--------------|--3--2--|
.....for your hand..is my good side...
2*-Another way would be playing it like on the record just hitting the bass notes
(these are the 2 lowest strings btw)
A|---------3/5-55-55------------------|
D|-3-33-33-----------7-77-77-7-77-77--| x2
Then
A|---------3/5-55-55-33335555----------|
D|-3-33-33--------------------7-77-77--|
and
D|-----------------------(0-2)--|
A|------------------------------|
D|-3-33-33-3-3555-2-22-22-22----|
i'm unsure of the thing in parenthesis
3*-The other way would be playing the powerchords to the bass notes of the 2nd way

*Verse:
Blake plays this before Sierra starts to sing
e|--5-----5-----5-----5-----5-----5-----7-----8---|
B|----5-----5-----6-----6-----8-----8-----6-------|
G|------5-----5-----5-----5-----5-----5-----5-----|
D|--7-----7-----7-----7-----7-----7-----7-----7---|
A|------------------------------------------------|
D|------------------------------------------------|

it's so eaasyyy
e|--5-----5-----5-----5-----5-----5-----5-----5------|
B|----5-----5-----5-----5-----6-----6-----6-----6----|
G|------5-----5-----5-----5-----5-----5-----5-----5--|
D|--7-----7-----7-----7-----7-----7-----7-----7------|
A|---------------------------------------------------|
D|---------------------------------------------------|

e|--5-----5-----5-----5-----5-----7-----8-----7------|
B|----8-----8-----8-----8-----6-----6-----6-----6----|
G|------5-----5-----5-----5-----5-----5-----5-----5--|
D|--7-----7-----7-----7-----7-----7-----7-----7------|
A|---------------------------------------------------|
D|---------------------------------------------------|

finding laame reaasoooooooooooooooooooooooooooooons
e|--12-------12-------12-------12-------10-------10-------10-------10-------|
B|-----10-------10-------10-------10-------10-------10-------10-------10----|
G|--------12-------12-------12-------12-------10-------10-------10-------10-|
D|--12-------12-------12-------12-------8--------8--------8--------8--------|
A|--------------------------------------------------------------------------|
D|--------------------------------------------------------------------------|
and strum this chord:
e|--5--|
B|--5--|
G|--6--|
D|--7--|
A|-----|
D|-----|

*-Now play the chorus again

*Bridge:
Guitar 1.
(these are the higher strings) just play some tremolo picking on these frets.
e|-12--11--12--13-15-12--11--10-8----|
B|-----------------------------------| x2
then
e|-12--11--12--13-15-12--11----------|
B|---------------------------13-12---|

Guitar 2.
(these are the lower strings)
A|---------------------------(10'S not 1's and 0's)-|
D|-77777777-66666666-77777777-8888-10101010---------|
then
A|--------------------------------------|
D|-77777777-66666666-55555555-33333333--|
this again
A|---------------------------(10'S not 1's and 0's)-|
D|-77777777-66666666-77777777-8888-10101010---------|
and end with this
A|--------------------------------------|
D|-77777777-66666666-33333333-22222222--|

Guitar 3.
Listen to the song to know when you start playing this.
e|------------------------------------|
B|--10------9------12-----------------|
G|-----9------8-------9-----77777777--|
D|-------10-----10------10--XXXXXXXX--|
A|--------------------------55555555--|
D|------------------------------------|
i'm not really sure about the last bit, but listen close to know the timing
e|-----------------------15------16--17---|
B|--10------9------12-13-----17-----------|
G|-----9------8---------------------------|
D|-------10-----10------------------------|
A|----------------------------------------|
D|----------------------------------------|

*what part is this some kind of breakdown?:
there are no guitars playing here but i usually just play this
e|---------------|
B|---------------|
G|---------------|
D|-(3)-(0)--(7)--|
A|---------------|
D|--3---0----7---| i sometimes play the notes in parenthesis too :D

*Play the chorus twice*

Outro:
e|--5-----5-----5-----5-----5-----5-----7-----8---|
B|----5-----5-----6-----6-----8-----8-----6-------|
G|------5-----5-----5-----5-----5-----5-----5-----|
D|--7-----7-----7-----7-----7-----7-----7-----7---|
A|------------------------------------------------|
D|------------------------------------------------|

e|--12-------12-------10-------10--------|
B|-----10-------10-------10-------10-----|
G|--------12-------12-------10-------10--|
D|--12-------12--------8--------8--------|
A|---------------------------------------|
D|---------------------------------------|

and well that's it now you can play Stranger by VersaEmerge
HELL YEAH! IMMA SHOW THIS TO MAH FRANDS SO THEY CAN BE JEALZ OF MA GEETAR SKILLS. DAMN
WHY SO AWESOME?
_______________________________________________________________________

=============
6.Redesign Me
=============
There's no guitar in this song till the prechorus and it goes like this

Pre-Chorus:

e|-3-----3-----3-----3-----6-----6-3-----6-----3-----3----------|
B|---4-----4-----4-----4-----4-------4-----4-----4-----4----3~--|
G|-----5-----5-----5-----5-----5-------5-----5-----5-----5--4~--|
D|----------------------------------------------------------5~--|
A|----------------------------------------------------------5~--|
D|--------------------------------------------------------------|

Chorus:
This is really weird cause first the guitar is plays these chords
Twice
e|-------------|
B|-------------|
G|-8--10-12--3-|
D|-6--8--10--1-|
A|-6--8--10--1-|
D|-6--8--10--1-|
but for the second part of the chorus they play it like this

D|---------|
A|---------|
F|---------|
C|-4-6-0-3-|
G|-4-6-0-3-|
C|-4-6-0-3-|

BET YA NOTICED SOMETHING WRONG!
yeah this song is probably in Drop C but i don't think you'd tune your guitar a whole
down just because there's ONE lower chord, so if you want just play it like the first 2
again.

"THOUGHT THAT I HAD SAAIID GOOOD BYEEE"

e|---------------|
B|---------------|
G|---------------|
D|-6666666655555-|
A|-6666666655555-|
D|-6666666655555-|


Now repeat everything for the next Pre-Chorus and Chorus

Bridge:

Guitar 1 just lets this chord ring

e|---|
B|---|
G|---|
D|-6-|
A|-6-|
D|-6-|

Guitar 2 plays this as needed

e|----11--------11--|
B|----11--------11--|
G|-12----12--12-----|
D|------------------|
A|------------------|
D|------------------|


Now just repeat the chorus
and then repeat the lead parts of the bridge for the outro.
that's it.

_________________________________________________________________

=============================
7.Fire (Aim Your Arrows High)
=============================

Intro:
Guitar 1:

e|---------------------------------|
B|---------5-------5------8--------|
G|---------6-(x16)-5-(x8)-8-(x8)---|
D|-2-------6-------5------8--------|
A|-2-(x32)-4-------3------6--------|
D|-2-------------------------------|

Guitar 2:
e|--------------------------------------------------------------|
B|--------------------------------------------------------------|
G|-12-11-12-11-12~--12-11-12--121211-/16\11-9~-/11\5--88888888--|
D|--------------------------------------------------------------|
A|--------------------------------------------------------------|
D|--------------------------------------------------------------|

Verse:
Here you strike just once these chords
e|---------|
B|-0--5--5-| X2
G|-0--5--6-|
D|-2--5--6-|
A|-2--3--4-|
D|-2-------|
THEN play the same chords but this time strum them
e|-------------------------|
B|-0------5-------5--------| X2
G|-0------5(x10)--6--------|
D|-2(x10)-5-------6-(x20)--|
A|-2------3-------4--------|
D|-2-----------------------|

Guitar 2 plays this:
"OUR TIME'S ALMOST RUNNING OUT"
e|---------|
B|---------|
G|-/11\9~--|
D|---------|
A|---------|
D|---------|


Chorus numbah 1:
e|-------------------------|
B|---------5-------5-------|
G|---------6-(x16)-5-(x16)-|
D|-2-------6-------5-------|
A|-2-(x32)-4-------3-------|
D|-2-----------------------|

e|---------------------------------|
B|---------5-------5------8--------|
G|---------6-(x16)-5-(x8)-8-(x8)---|
D|-2-------6-------5------8--------|
A|-2-(x32)-4-------3------6--------|
D|-2-------------------------------|

Second Verse:
This out of our control
e|-------------|
B|---------0---|
G|-----0-----0-|
D|---5---5-----|
A|-4-----------|
D|-------------|
then

e|---------0-----------------------------------------|
B|-----0-----0----------0-----------0-----------0----|
G|------------------0-----0-----0-----0-----0-----0--|
D|---5---5--------5---5-------5---5-------5---5------|
A|-7-----------3------------4-----------4------------|
D|---------------------------------------------------|
(repeat this^ as needed)

Guitar 2:
our controool:
e|---------|
B|---------|
G|-/11\9~--|
D|---------|
A|---------|
D|---------|

Repeat the Chorus and then go to the bridge that goes like:

Guitar 1
Listen to the song to figure the strumming out, these are the chords

e|-----------|
B|-5--7-8--7-|
G|-5--7-9--7-|
D|-5--7-9--7-|
A|-3--5-7--5-|
D|-----------|
_________YES WE'RE HEXED
e|------------|
B|-1-------4--|
G|-2-------4--|
D|-2-------4--|
A|-0-------2--|
D|------------|

Guitar 2
e|---------------------------------------------------|
B|---------------------------------------------------|
G|-5-------7777-9-------10101010-14--------16--------|
D|-x-(x28)-xxxx-x-(x28)-x-x-x-x--x--(x32)--x--(x16)--| STOP
A|-3-------5555-7-------9-9-9-9--12--------14--------|
D|---------------------------------------------------|

Now play the chorus again once

Outro:
Guitar 1 plays the same chords from the chorus

Guitar 2: plays this
e|-15-14-15-14-15---15-14-15--151514-/19\14-12~/14\8~--|
B|-x--x--x--x--x----x--x--x---x-x-x---x--x--x---x--x~--|
G|-12-11-12-11-12~--12-11-12--121211-/16\11-9~-/11\5~--|
D|-----------------------------------------------------|
A|-----------------------------------------------------|
D|-----------------------------------------------------|

e|-15-14-15-14-15---15-14-15--151514-/19\14-12~/14\8--1111111111111111--|
B|-x--x--x--x--x----x--x--x---x-x-x---x--x--x---x--x--x-x-x-x-x-x-x-x---|
G|-12-11-12-11-12~--12-11-12--121211-/16\11-9~-/11\5--8-8-8-8-8-8-8-8---|
D|----------------------------------------------------------------------|
A|----------------------------------------------------------------------|
D|----------------------------------------------------------------------|

That's it, i'm obviously not tabbing the interlude thingy.

______________________________________________________________________

==========
8.Up There
=========

there's no guitar till the first pre-chorus thingy

e|------------------------------------|
B|------------------------------------|
G|-8-------11-----4-------------------|
D|-x-(x18)-x-(x6)-x-(x18)-6-6-6-5xxxx-|
A|-6-------9------2-------6-6-6-5xxxx-|
D|------------------------6-6-6-5xxxx-|

Chorus

e|------------------------------------|
B|------------------------------------|
G|------------------------------------|
D|-1-(x18)-4-(x6)-9-(x18)-6-6-6-5-5-5-|
A|-1-------4------9-------6-6-6-5-5-5-|
D|-1-------4------9-------6-6-6-5-5-5-| (x2)

Second Verse:
Listen to the song to get the strumming pattern
Theeeeere'ss sooooomeeethiiiiiinnngg up theeeeere it sleeps out the cracks of my liips
e|-------------------------|
B|-44--44-4444-66--66-6666-|
G|-44--44-4444-77--77-7777-|
D|-66--66-6666-88--88-8888-|
A|-66--66-6666-88--88-8888-|(x4)
D|-------------------------|

e|-------------------------|
B|-44--44-4444-66--66-6666-|
G|-44--44-4444-77--77-7777-|
D|-44--44-4444-88--88-8888-|
A|-22--22-2222-88--88-8888-|(x3)
D|-------------------------|
then
(i'm not really sure of this bit)
e|-------------------------|
B|-77--77-7777-66--66-6666-|
G|-88--88-8888-77--77-7777-|
D|-99--99-9999-88--88-8888-|
A|-99--99-9999-88--88-8888-|
D|-------------------------|

Repeat the chorus

Bridge:(There's also some lead guitar in this bit but i can't figure it out so if you
it, well help me out please.)

e|--------------------------------------------------------|
B|--------------------------------------------------------|
G|-888888777777666666555555------444444333333444446777777-|
D|-xxxxxxxxxxxxxxxxxxxxxxxx-(x2)-444444333333444446777777-|
A|-666666555555444444333333------222222111111222224555555-|
D|--------------------------------------------------------|

e|-----------------------|
B|-----------------------|
G|-444444333333-2--------|
D|-444444333333-2-(x24)--|
A|-222222111111-0--------|
D|-----------------------|

Right before the last Chorus blake plays a D# chord but i'm not pretty sure which one it
but just play the power chord to D# instead

here it is in case you're wondering what D# is

e|---|
B|---|
G|-8-|
D|-8-|
A|-6-|
D|---|

Then just repeat the chorus till the end.

_____________________________________________________________

===============
9.Your Own Love
===============

Intro:
Guitar 1: Repeat multiple times
e|-10------7------7------7-------|
B|-10-(x7)-9-(x7)-8-(x7)-7-(x8)--|
G|-7-------7------7------7-------|
D|-------------------------------|
A|-------------------------------|
D|-------------------------------|

Guitar 2:

e|--------------------------------------------------------------------|
B|--------------------------------------------------------------------|
G|-44444444-4444444-4444444-444444444444444-4444444-------------------|
D|-44444444-4444444-4444444-444444444444444-4444444--5555555-6666666--|
A|-22222222-2222222-2222222-222222222222222-2222222--5555555-6666666--|
D|---------------------------------------------------5555555-6666666--|

Guitar 3:

e|---------------------------------------------|
B|---------------------------------------------|
G|-7777777777777777-99999999-1111111111111111--|
D|-xxxxxxxxxxxxxxxx-xxxxxxxx-x-x-x-x-x-x-x-x---|
A|-5555555555555555-77777777-9-9-9-9-9-9-9-9---| x2
D|---------------------------------------------|

Verse 1:
play with palm mute these chords
e|-----------------------------------|
B|-----------------------------------|
G|-----------------------------------|
D|-999999999999999-5555555-22222222--| x2
A|-999999999999999-5555555-22222222--|
D|-999999999999999-5555555-22222222--|
PM ............... ....... ........

Repeat the Intro as the Chorus.

Verse 2

e|-----------------------------------|
B|-----------------------------------|
G|-----------------------------------|
D|-9999999999999-55555555-222222222--|
A|-9999999999999-55555555-222222222--|
D|-9999999999999-55555555-222222222--| x2
PM ............. ........ .........

NO I THINK YOU'RE BROKEN TO THE FACT

e|---------------------------------|
B|---------------------------------|
G|---------------------------------|
D|-9-9-9-9-9-9-9995-5-5-5-5-5-222--|
A|-9-9-9-9-9-9-9995-5-5-5-2-2-222--|
D|-9-9-9-9-9-9-9995-5-5-5-2-2-222--|
YEAH I THINK YOU'RE BROKEN TO THE FAAAACT
e|-----------------------------------|
B|-----------------------------------|
G|-----------------------------------|
D|-999999999999999-5555555-22222222--|
A|-999999999999999-5555555-22222222--|
D|-999999999999999-5555555-22222222--|

Repeat the chorus

Bridge
Guitar 1

e|------------------------------------------------------------|
B|------------------------------------------------------------|
G|------------------------------------------------------------|
D|-5-------7777-9-------11111111-12------7------2-------4444--|
A|-x-(x12)-xxxx-x-(x12)-x-x-x-x-----(x8)---(x8)-x-(x12)-xxxx--|
D|-5-------7777-9-------11111111-12------7------2-------4444--|

e|------------------------------------------------------------|
B|------------------------------------------------------------|
G|------------------------------------------------------------|
D|-5--------9-------11111111-12------7------2------4------9~--|
A|-5-(x16)--9-(x12)-10101010-12-(x8)-7-(x8)-2-(x8)-4-(x8)-9~--|
D|-5--------9-------11111111-12------7------2------4------9~--|

Guitar 2: not sure if these are strings

e|------------------------------------------------------------------|
B|-12------14141414-15-----17171717-19-----14-----12------14141414--|
G|---(x12)----------x-(x12)x-x-x-x--x-(x8)-x-(x8)-x-(x12)-x-x-x-x---|
D|-9-------11111111-12-----14141414-16-----11-----9-------11111111--|
A|------------------------------------------------------------------|
D|------------------------------------------------------------------|

e|--------------------------------------------------------------------|
B|-12------14141414-15-----17171717-19-----14-----12------14-----12~--|
G|---(x12)----------x-(x12)x-x-x-x--x-(x8)-x-(x8)-x-(x18)-x-(x8)-x----|
D|-9-------11111111-12-----14141414-16-----11-----9-------11-----9~---|
A|--------------------------------------------------------------------|
D|--------------------------------------------------------------------|

Guitar 3:

e|-------------------------------------------------------------|
B|-------------------------------------------------------------|
G|-7-------9999-11------12121212--14------9------4-------6666--|
D|-x-(x12)-xxxx-x-(x12)-x-x-x-x---x--(x8)-x-(x8)-x-(x12)-xxxx--|
A|-5-------7777-9-------10101010--12------7------2-------4444--|
D|-------------------------------------------------------------|

e|---------------------------------------------------------------|
B|---------------------------------------------------------------|
G|-7-------9999-11------12121212--14------9------7------9999-7~--|
D|-x-(x12)-xxxx-x-(x12)-x-x-x-x---x--(x8)-x-(x8)-x-(x8)-xxxx-x---|
A|-5-------7777-9-------10101010--12------7------5------7777-5~--|
D|---------------------------------------------------------------|

Now repeat the chorus till the end and the final chord is:

e|-----|
B|-----|
G|-----|
D|-9\--|
A|-9\--|
D|-9\--|

_____________________________________________________________

============
10.Mythology
============

This song has NO lead guitar parts

Intro:
Figure the strumming out
e|------------------|----------------|
B|------------------|----------------|
G|-----5---8--4-----|-----5-------5--|
D|-6---5---8--4-5---|-6---5---5---5--|
A|-6---3---6--2-5---|-6---3---5---3--|
D|-6------------5---|-6-------5------|

Verse: Clean Guitar
e|--------------------|----------------------------|
B|-4--4-4-4-4-4-------|-4--4-4-6-6-6--4--4-4-4-4-4-|
G|-5--5-5-5-5-5--(x2)-|-5--5-5-6-6-6--5--5-5-4-4-4-|
D|-5--5-5-6-6-6-------|-5--5-5-6-6-6--6--6-6-4-4-4-|
A|-3--3-3-6-6-6-------|-3--3-3-4-4-4--6--6-6-2-2-2-|
D|-------(6-6-6)------|----------------------------|

play that twice

Pre-Chorus numbah 1
I'VE GROWN INTO THIS----THIS MYTH WITH YOUUUUUUU
e|--------------------------------------------------------|
B|-4---------3-------4------------------3333333333333-----|
G|-5---------3-------5------------------4444444444444-----|
D|-5---------3-------6------------------5555555555555-----|
A|-3---------1-------6------------------5555555555555-----|
D|--------------------------------------------------------|

The Chorus is the same as the intro

Verse 2:

e|--------------------|----------------------------|
B|-4--4-4-4-4-4-------|-4--4-4-6-6-6--4--4-4-4-4-4-|
G|-5--5-5-5-5-5--(x2)-|-5--5-5-6-6-6--5--5-5-4-4-4-|
D|-5--5-5-6-6-6-------|-5--5-5-6-6-6--6--6-6-4-4-4-|
A|-3--3-3-6-6-6-------|-3--3-3-4-4-4--6--6-6-2-2-2-|
D|-------(6-6-6)------|----------------------------|

Play that once then the second time that goes like NOTHING IN ME WAS THE SAME you just
those chords up and down.

Pre-Chorus numbah 2


Pre-Chorus numbah 1
I'VE GROWN INTO THIS
e|---------------|
B|-4---------3---|
G|-5---------3---|
D|-5---------3---|
A|-3---------1---|
D|---------------|
MYYYTH WIIIIIIIIIIIIIIIITHYOOOOOOOOOOOOOUUUUUUUUUU

e|----------------------------|
B|----------------------------|
G|-5--3--3-2------------------|
D|-5--4--3-3--66666666-55555--|
A|-3--2--1-0--66666666-55555--|
D|------------66666666-55555--|

Repeat the Chorus

Bridge:
KNOTS AND CROSSES SKEWS I FOLD IN TWO
e|-----------------------------------|
B|-4--------------8-------6----------|
G|-5--------------8-------7----------|
D|-5--------------8-------8----------|
A|-3--------------6-------5----------|
D|-----------------------------------|
Play that twice, the second time strum the chords up and down
YOU'VE LOST..CIALLY MEEEEEEEEEEEEEEEEEE
e|--------------------------|
B|--------------------------|
G|---------5----------------|
D|-6-------5-(x16)-5--------|
A|-6-(x16)-3-------5-(x32)--|
D|-6---------------5--------|

Last Chorus
e|------------------|----------------|
B|------------------|----------------|
G|-----5---8--4-----|-----5-------5--|
D|-6---5---8--4-5---|-6---5---5---5--|
A|-6---3---6--2-5---|-6---3---5---3--|
D|-6------------5---|-6-------5------|
play that  a few times but the last time don't play the last C chord and keep playing 
G one.

________________________________________________________________________

============
11.Lost Tree
============

I want to thank Lauren Marquez, a friend of mine, for tabbing the first half of the song
the tapping part), she's pretty badass and here's a video of her playing it, check it
and give her a few likes, oh the video might also help you to learn the tapping part.
okay here's the vid: http://www.youtube.com/watch?v=Vtc8_AxGBak

Verses:
Listen to the song to get the strumming and all
e|-2--0--1-|
B|-3--3--3-|
G|-2--2--3-|
D|-0--0--3-|
A|-------1-|
D|---------|

Chorus:
"Here we are, rooted deep..."
E|---------------------------------------|
B|---------------------------------------|
G|------(0)------------(0)-----------(0)-|
D|-3-----1--------8-----1--------8----1--|
A|-3-----1--------5-----1--------5----1--|
D|-3-----1--------5-----1--------5----1--|

Use that till you get to the tapping part
The verse chords are playing in the background while you play this

   T        T     T       T   T    T  T
E|-14/17p10-12/13------------------10---------|
B|----------------10/11p7-----10p7----10/11p7-|
G|------------------------9p7-----------------| x2
D|--------------------------------------------|
A|--------------------------------------------|
D|--------------------------------------------|

   T       T    T          T    T       T          T       T    T    T       T    T
E|-10/12p6-13p6-12/13/15p6-12p6-10/12p6-10/12/13p6-12/13p6-15p6-12p6-10/12p6-13p6-10/12-|
B|--------------------------------------------------------------------------------------|
G|--------------------------------------------------------------------------------------|
D|--------------------------------------------------------------------------------------|
A|--------------------------------------------------------------------------------------|
D|--------------------------------------------------------------------------------------|

and when it all explodes guitar 1 plays these chords

e|--------|
B|--------|
G|-7------|
D|-7--8---|
A|-5--8---|
D|-0--8---|

Guitar 2 plays these

(i try to bend these chords just a little to add an even moar epic sound)
e|--------------------------|
B|--------------------------|
G|-13--13--13-14--11-11-11--|
D|-x---x---x--x---x--x--x---|
A|-11--11--11-12--9--9--9---|
D|--------------------------|

e|------------------------------|
B|------------------------------|
G|-13--13--13-14--11-1111-9-9---|
D|-x---x---x--x---x--x-x--X-X---|
A|-11--11--11-12--9--9-9--7-7---|
D|------------------------------|

e|----------------------|
B|----------------------|
G|-9--9--9-10--7--7--7--|
D|-X--X--X-X---X--X--X--|
A|-7--7--7-8---5--5--5--|
D|----------------------|

e|----------------------|
B|----------------------|
G|-9--9--9-10--7--7--7--|
D|-X--X--X-X---X--X--X--|
A|-7--7--7-8---5--5--5--|
D|----------------------|

Guitar 1 and guitar 2 keep playing that for the rest of the song
now the guitar that makes it's own mess is guitar 3 it kind of goes like this
listen closely
Guitar 3
In the first repeat of the outro it goes like

e|-----------------------------------------------------------|
B|--10-(X16)-11(X8)-13(X8)-10/11-11(X14)-10(X8)-8(X4)-11(X4)-|
G|-----------------------------------------------------------|
D|-----------------------------------------------------------|
A|-----------------------------------------------------------|
D|-----------------------------------------------------------|
         T     T        T        T
e|------------------------------------|
B|-10~---15p10-15/17p10-17/18p10-18---|
G|------------------------------------|
D|------------------------------------|
A|------------------------------------|
D|------------------------------------|

e|---------------------------------|
B|-15p10-11(X16)-13(x3)--15(x3)----|
G|---------------------------------|
D|---------------------------------|
A|---------------------------------|
D|---------------------------------|
THE TIME I'M... WHERE I'VE BEEEENN
e|---------------------------------10(X4)--------10(X4)---|
B|-10~----------------------11(X12)-------11(X12)---------|
G|--------------------------------------------------------|
D|--------------------------------------------------------|
A|--------------------------------------------------------|
D|--------------------------------------------------------|
HEY MIND READER.... GET WAY
e|------------------------------------------------------------------|
B|-10(XAFEWTMES)-----------11(X16)-13(X4)-15(X4)-17(X4)-19(X4)------|
G|------------------------------------------------------------------|
D|------------------------------------- ----------------------------|
A|------------------------------------------------------------------|
D|------------------------------------------------------------------|
STRANGER I KNOW SO WELL DON'T LET ME... GET A+WAY
e|--------------------------------------------------------|
B|-19(xabunchoftimes)---19^19^19^19^19^---------18(x16)---|
G|--------------------------------------------------------|
D|--------------------------------------------------------|
A|--------------------------------------------------------|
D|--------------------------------------------------------|
BLAME IT ON THE TELEVISION----LOOOVE
e|-----------------------------------------------------------------------|
B|-17~--15~--13~--10(x32)-11111111---11----11---11--------11----11--11---|
G|-----------------------------------------------------------------------|
D|---------------------------------12---12~---12---12~--12--12---12------|
A|-----------------------------------------------------------------------|
D|-----------------------------------------------------------------------|
PULLING I'M PUSHING....FATHER SKYY...................SO WHY DON'T WE JUST QUIT
e|-------------------------------------------------------------------------------------|
B|--10-(X32)-11(X12)----------13131515 15\13-13-13\11-11\10-10\8-10/11-11/13-13/15-15~-|
G|-------------------------------------------------------------------------------------|
D|-------------------------------------------------------------------------------------|
A|-------------------------------------------------------------------------------------|
D|-------------------------------------------------------------------------------------|
DONT..GET AWAY
e|-------14-----------14-14--14-14--16--16--14-17----|
B|-15(x6)--15515151515-15--15-----15--15-------------|
G|---------------------------------------------------|
D|---------------------------------------------------|
A|---------------------------------------------------|
D|---------------------------------------------------|

lol the rest is so messy i'm gonna leave it like this, actually i don't know why would
learn this bit, just play along with it and create some bad ass stuff, it'll probably
moar epic it depends and it's not like this is too clear to hear and tab so just
have fun with the notes i gave you already.
________________________________________________________________________

I'm looking forward to tabbing the bonus tracks (Let Down and Father Sky)
i think i'll tab them maybe next week

AND YES ALL OF THESE ARE MY OWN TABS.

            
            
Suggest correction
Creating personal tab
Creating personal tab
You can edit any tab online and save it as your Personal.

You can edit, replace or remove any tab part or add personal notes – all changes will be seen only by you.

Personal tabs can be accessed anytime from any device, even offline.
Learn more »
comments
print report bad tab
guest
You may want to rate the tab now too:
select rating
Wanna post a correction for this tab? Suggest correction