Oops, an error
Loading. Please wait.

No Me Ves tab

52 views 1 this week
no commentswrite comment
1 2 3 4 5
3 more votes to show rating
add to favorites
×
Save as Personal and add changes to this tab that will be seen only by you. Learn more ›
×
You can save this tab as Personal to edit and correct it or add notes. All changes will be seen only by you. Learn more »
launch autoscroll
font size
0
reset
how to read this tab
guitar tuner
edit
Autoscroll
slow
fast
+/-
esc
set tempo
stop
Bueno esto es lo que hace la otra viola o mas o  distorcion suena
 el tema cuando estira.


                                 en los bend
                       (   siempre mantiene estirada    )
                        1/2 (1tono)     =        1/2tono
E  ---------------------------------------------------------]
B  ---------------------------------------------------------]
G  -------------------8-10b[10br]--8-10b[10br]--8-10br-8----]
D  ------8-10p8-10~~~------------------------------------10~] X2
A  ---10----------------------------------------------------]
E  ---------------------------------------------------------]

      (termina)
   ----------------
   ----------------
   ----------------
   -----8-10p8-10~-
   --10------------
   ----------------


Vibrato>>>                 ~
Estiradas>>                B
Estirar y bajar>>>         br
Ligados descendentes>      p


Mas adelante pongo la ultima parte que hace esta guitarra.
Espero que les sirva.

MATUTE------------.

            
            
Suggest correction
Creating personal tab
Creating personal tab
You can edit any tab online and save it as your Personal.

You can edit, replace or remove any tab part or add personal notes – all changes will be seen only by you.

Personal tabs can be accessed anytime from any device, even offline.
Learn more »
Give kudos to tab author, rate the tab!
1 2 3 4 5
comments
print report bad tab
guest
Wanna post a correction for this tab? Suggest correction