Oops, an error
Loading. Please wait.

The Swimming Song tab

by Vetiver
5,933 views 9 this week
2 commentsread comments
1 2 3 4 5
x 6
add to favorites
×
Save as Personal and add changes to this tab that will be seen only by you. Learn more ›
×
You can save this tab as Personal to edit and correct it or add notes. All changes will be seen only by you. Learn more »
launch autoscroll
font size
0
reset
how to read this tab
guitar tuner
edit
Autoscroll
slow
fast
+/-
esc
set tempo
stop
Difficulty
                                 || VETIVER - SWIMMING SONG ||

These aren't the chords, this is the into part which is basically the whole song.
I'm pretty sure this is correct. Enjoy :) 

h> = hammer-on
p> = pull-off

Tabbed by Fabian BR

e|-----------------------------------------------------------------------------------|
B|-----3----1----1p>0----------------------------------------------------------------|
G|--------------------2---0---0h>2---4p>2---0---------------------0---0h>2---0-------|
D|------------------------------------------------2---2------0h>2--------------------|
A|-----------------------------------------------------------------------------------|
E|-----------------------------------------------------------------------------------|

e|-----------------------------------------------------------------------------------|
B|-----------------------------------------------------------------------------------|
G|----0h>2----4p>2---0----------0h>2----4p>2---0---0---------------------------------|
D|------------------------2---2--------------------------------0-...start again------|
A|-----------------------------------------------------------------------------------|
E|-----------------------------------------------------------------------------------|

            
            
Suggest correction
Creating personal tab
Creating personal tab
You can edit any tab online and save it as your Personal.

You can edit, replace or remove any tab part or add personal notes – all changes will be seen only by you.

Personal tabs can be accessed anytime from any device, even offline.
Learn more »
comments
print report bad tab
2 comments total.
0 reply
dannu589 33 Mar 29, 2015 01:58 AM, edited at 05:59 am

I think it sounds better like thise|-----------------------------------------------------------------------------------|B|-----3----1----1p>0----------------------------------------------------------------|G|--------------------2---0---0h>2---2p>0---0---------------------0---0h>2---0-------|D|------------------------------------------------2---2------0h>2--------------------|A|-----------------------------------------------------------------------------------|E|-----------------------------------------------------------------------------------|e|-----------------------------------------------------------------------------------|B|-----------------------------------------------------------------------------------|G|----0h>2----2p>0---0----------0h>2----4p>2---0---0---------------------------------|D|------------------------2---2--------------------------------0-...start again------|A|-----------------------------------------------------------------------------------|E|-----------------------------------------------------------------------------------|

0 reply
dannu589 33 Mar 29, 2015 02:04 AM

well, i messed up, anyway, i think it sounds better like this

e|-----------------------------------------------------------------------------------|
B|-----3----1----1p>0----------------------------------------------------------------|
G|--------------------2---0---0h>2---2p>0-------------------------0---0h>2---0-------|
D|------------------------------------------------2---2------0h>2--------------------|
A|-----------------------------------------------------------------------------------|
E|-----------------------------------------------------------------------------------|

e|-----------------------------------------------------------------------------------|
B|-----------------------------------------------------------------------------------|
G|----0h>2----2p>0--------------0h>2----4p>2---0---0---------------------------------|
D|------------------------2---2--------------------------------0-...start again------|
A|-----------------------------------------------------------------------------------|
E|-----------------------------------------------------------------------------------|

guest
Wanna post a correction for this tab? Suggest correction