Oops, an error
Loading. Please wait.

Chronicles tab

1,220 views 1 this week
3 commentsread comments
1 2 3 4 5
3 more votes to show rating
add to favorites
×
Save as Personal and add changes to this tab that will be seen only by you. Learn more ›
×
You can save this tab as Personal to edit and correct it or add notes. All changes will be seen only by you. Learn more »
launch autoscroll
font size
0
reset
how to read this tab
guitar tuner
edit
Autoscroll
slow
fast
+/-
esc
set tempo
stop
Viatrophy - Chronicles.

Palm Mutes = .
Pinch harmonics = *
hammer-ons = h
Pull offs = p
Let Ring = ~
slide down = \
slide up = /

NOTE*
I learnt this by ear, so this tab may not be 100% correct.
ive only tabbed out one guitar, the second guitar is pretty much the same but in 
some parts its different, its easy to figure out.

ALSO*
there is a missing riff, this is because i found it hard to figure out by ear. so 
if anyone has the tab to that riff or if anyone has figured it out.
please leave it in a comment or email me it, so i then can put it on here :)
Thank you
enjoy...


00.00 - 00.06
e|------------------| \ 
B|------------------|  \ 
G|------------------|   \ X4
D|------------------|   /
A|-1-0-1-3-4-3-1-0--|  /
D|-1-0-1-3-4-3-1-0--| /
pm . . . . . . . .


00.06 - 00.08
e|------------------| \ 
B|------------------|  \ 
G|------------------|   \ X2
D|------------------|   /
A|------------------|  /
D|-1-0-1-3-4-3-1-0--| /


00.08 - 00.10
e|---------------------------|   
B|---------------------------|  
G|---------------------------|   
D|---------------------------|   
A|-1-0-1-3-4-3-1-0-1-0-1-3-4-|  
D|-1-0-1-3-4-3-1-0-1-0-1-3-4-| 
pm . . . . . . . . . . . . .


00.10 - 00.23
e|--------------------------------------------|  \ 
B|--------------------------------------------|   \
G|--------------------------------------------|    \ X2
D|--------------------------------------------|    /   (second time let the 
A|-11--11--11-1111--11--11--11-1111-11----*4~-|   /     1's ring a little)
D|-11--11--11-1111--11--11--11-1111-11-111----|  /
pm ..  ..  .. ....  ..  ..  .. .... .. ...


00.23 - 00.26
e|---------|   
B|---------|  
G|---------|   
D|-0~~~----|   
A|-0~~~----|  
D|-0~~~----| 

00.26 00.29
e|----------|   
B|----------|  
G|----------|   
D|----------|   
A|---1\3~~~-|  
D|----------| 


00.29 00.29
e|----------|   
B|----------|  
G|----------|   
D|----------|   
A|----------|  
D|--0000----| 


00.10 - 00.23
e|-------------------------------------------------------------|  
B|-------------------------------------------------------------|   
G|-------------------------------------------------------------|\    
D|-------------------------------------------------------------| \    
A|-------------------------------------------------------------|  \       
D|-00000000110011334433441100000000-00-1h3p1h3p1 00-4h7p4h7p4--|   \
pm ................................ ..           ..                 \
                                                                    /x4
                                       Second time, play at end.   /
                                       e|---------------------|   /   
                                       B|---------------------|  /  
                                       G|---------------------| /   
                                       D|---------------------|/   
                                       A|---------------------|  
                                       D|--000000-000000-0000-|
                                       pm  ...... ...... ....



e|-----------|   
B|-----------|  
G|-----------|   
D|-----------|   
A|--11-1111--|  
D|--11-1111--|
pm  .. ....


e|-------------------------------------------------------------|  
B|-------------------------------------------------------------|   
G|----------------THIS IS THE MISSING RIFF I--CAN'T------------|   
D|----------------FIRGURE OUT,-PLEASE EMAIL IT ME -------------|  
A|----------------IF YOU WHAT IT IS.---------------------------|       
D|-------------------------------------------------------------|

e|-----------|   
B|-----------|  
G|-----------|   
D|-----------|   
A|--11-1111--|  
D|--11-1111--|
PM  .. ....


E|-------------------------------------------------------------|  
B|-------------------------------------------------------------|   
G|-------------------------------------------------------------|\    
D|-------------------------------------------------------------| \    
A|-------------------------------------------------------------|  \       
D|-00000000110011334433441100000000-00-1h3p1h3p1 00-4h7p4h7p4--|   \
pm ................................ ..           ..                 \
                                                                    /x4
                                       Second time, play at end.   /
                                       e|---------------------|   /   
                                       B|---------------------|  /  
                                       G|---------------------| /   
                                       D|---------------------|/   
                                       A|---------------------|  
                                       D|--000000-000000-0000-|
                                       pm  ...... ...... ....


e|-----------|   
B|-----------|  
G|-----------|   
D|-----------|   
A|--11-1111--|  
D|--11-1111--|
pm  .. ....


e|-------------------------------------------------------------|  
B|-------------------------------------------------------------|   
G|----------------THIS IS THE MISSING RIFF I--CAN'T------------|   
D|----------------FIRGURE OUT,-PLEASE EMAIL IT ME -------------|  
A|----------------IF YOU WHAT IT IS.---------------------------|       
D|-------------------------------------------------------------|


e|-------------------------------------|   
B|-------------------------------------|  
G|-------------------------------------|   
D|-------------------------------------|          
A|--1-0-4~~--4-0-8~~---3\7~~-3\8~~-----|               \
D|--1-0-4~~--4-0-8~~-------------------|                \
pm  . .      . .                                         \   
                                                         /X2
e|----------------------------------------------------| /  
B|----------------------------------------------------|  
G|----------------------------------------------------|   
D|----------------------------------------------------|   
A|--1-0-4~~--4-0-8~~---8------------------------------|  
D|--1-0-4~~--4-0-8~~----7~~-4-6-4~~-4-6-4-3-4~~-------|
                       NOT SURE ABOUT THIS RIFF.         


e|----------------------|   
B|----------------------|  
G|----------------------|   x2
D|----------------------|   
A|----------------------|  
D|--111-11-1-444-44-4---|
pm  .. ... . ... .. .



e|----------------------------------------------------|   
B|----------------------------------------------------|  
G|----------------------------------------------------|   
D|----------------------------------------------------|   
A|----------------------------------------------------|  
D|--11114441333-11114441333-11114441333-11114441333---|        

       THEN

e|-----------------------------------------------------|   
B|-----------------------------------------------------|  
G|-----------------------------------------------------|   
D|-----------------------------------------------------|   
A|-----------------------------------------------12\\--|  
D|--44448884777-44448884777-44448884777-44448884-12\\--|


e|----------------------------------------------------|   
B|----------------------------------------------------|  
G|----------------------------------------------------|   
D|----------------------------------------------------|   
A|--11114441333-11114441333-11114441333-11114441333---|  
D|--11114441333-11114441333-11114441333-11114441333---|        
pm  ........... ........... ........... ...........


e|-----------------------------------------------------|   
B|-----------------------------------------------------|  
G|-----------------------------------------------------|   
D|-----------------------------------------------------|   
A|--44448884777-44448884777-44448884777-44448884-12\\--|  
D|--44448884777-44448884777-44448884777-44448884-12\\--|



e|----------------------------------------------------|   
B|----------------------------------------------------|  
G|----------------------------------------------------|   
D|----------------------------------------------------|   
A|--11114441333-11114441333-11114441333-11114441333---|  
D|--11114441333-11114441333-11114441333-11114441333---|        
pm  ........... ........... ........... ...........
       

e|-----------------------------------------------------|   
B|-----------------------------------------------------|  
G|-----------------------------------------------------|   
D|-----------------------------------------------------|   
A|--44448884777-44448884777-44448884777-44448884777----|  
D|--44448884777-44448884777-44448884777-44448884777----|


e|--------------------------------------------|  \ 
B|--------------------------------------------|   \
G|--------------------------------------------|    \ X2
D|----------------------------------------*6~-|    /   (second time let the 
A|-11--11--11-1111--11--11--11-1111-11--------|   /     1's ring a little)
D|-11--11--11-1111--11--11--11-1111-11-111----|  /
pm ..  ..  .. ....  ..  ..  .. .... .. ...


e|----------------------|   
B|----------------------|  
G|----------------------|   
D|-1~~~~~~-10~~~/9~~~---| x4  
A|-1~~~~~~-10~~~/9~~~---|  
D|-1~~~~~~-10~~~/9~~~---| 


e|-----------------------------------------------------| 
B|-----------------------------------------------------|   
G|-----------------------------------------------------|     
D|-----------------------------------------------------|       
A|-11-1111-11-11-1111-1010-10101010-1010-1010-10101010-|  \     
D|-11-1111-11-11-1111-1010-10101010-1010-1010-10101010-|   \
                                                           /x2
e|---------------------|                                  /
B|---------------------|   
G|---------------------|     
D|---------------------|       
A|-99-9999-99-99-9999--|       
D|-99-9999-99-99-9999--|
 

e|----------------------|   
B|----------------------|  
G|----------------------|   
D|-1~~~~~~-10~~~/9~~~---| x4  
A|-1~~~~~~-10~~~/9~~~---|  
D|-1~~~~~~-10~~~/9~~~---| 

e|-----------------|   
B|-----------------|  
G|-----------------|   
D|-----------------| x4  
A|--0000-3333------|  
D|--0000-3333------|


e|----------------------------------------------------------| 
B|----------------------------------------------------------|   
G|----------------------------------------------------------|     
D|----------------------------------------------------------|       
A|----------------------------------------------------------|  X4    
D|-1111111111119999999101010101010-111111111111000000333333-|

thats it!

great song



            
            
Suggest correction
Creating personal tab
Creating personal tab
You can edit any tab online and save it as your Personal.

You can edit, replace or remove any tab part or add personal notes – all changes will be seen only by you.

Personal tabs can be accessed anytime from any device, even offline.
Learn more »
Give kudos to tab author, rate the tab!
1 2 3 4 5
comments
print report bad tab
3 comments total.
-1 reply
KornBred 10 Feb 12, 2009 04:52 PM

Hey man, it aint the missin one ill try to get at that...But try this out for the verse part im sure its more accurate....
e|----------------------------------------------------------------------------|
B|----------------------------------------------------------------------------|
G|----------------------------------------------------------------------------|
D|----------------------------------------------------------------------------|
A|---------------------------------11-----------------------------------------|
D|-00000000000000000000110033110011--11000000000000000000001h4p1h400004h7p4h7-|

From: KornBred (hideousbastard@yahoo.com)

0 reply
KornBred 10 Feb 12, 2009 05:14 PM

sorry bout the accidental multiple posts... heres another thing that sounds better:
On your 4th bar down, the
------ ------
------ ------
------ ------
------ 's should be ------ 's You know what I mean?
-1---- -0----
-1---- -1----

0 reply
KornBred 10 Feb 12, 2009 05:23 PM

sorry, cant you delete your own ****in posts? help me out lol
e|--------------------------------------------|
B|--------------------------------------------|
G|--------------------------------------------|
D|--------------------------------------------|
A|-00--00--00-0000--00--00--00-0000-00----*4~-|
D|-11--11--11-1111--11--11--11-1111-11-111----|
pm .. .. .. .... .. .. .. .... .. ...

guest
You may want to rate the tab now too:
select rating
Wanna post a correction for this tab? Suggest correction