Oops, an error
Loading. Please wait.

Parallel Lines tab

112 views 1 this week
no commentswrite comment
1 2 3 4 5
3 more votes to show rating
add to favorites
×
Save as Personal and add changes to this tab that will be seen only by you. Learn more ›
×
You can save this tab as Personal to edit and correct it or add notes. All changes will be seen only by you. Learn more »
launch autoscroll
font size
0
reset
how to read this tab
guitar tuner
edit
Autoscroll
slow
fast
+/-
esc
set tempo
stop
Artist: Vic Godard and the Subway Sect
Song: "Parallel Lines"
Album: A Retrospective 1977-81 (1984)



Tuning: Standard



INTRO:
Guitar I
e|-8-----------8-----x-----3-----------x-----1-----------1-----1-----1-----1/----------3-----x----||
B|-8-----------8-----x-----3-----------x-----1-----------1-----1-----1-----1/----------3-----x----||
G|-9-----------9-----x-----4-----------x-----2-----------2-----2-----2-----2/----------4-----x----|| x 4
D|-10----------10----x-----5-----------x-----3-----------3-----3-----3-----3/----------5-----x----||
A|-10----------10----x-----5-----------x-----3-----------3-----3-----3-----3/----------5-----x----||
E|-8-----------8-----x-----3-----------x-----1-----------1-----1-----1-----1/----------3-----x----||
|                                                                                                 |
|                                                                                                 |
Guitar II                                                                                         |
e|-------------------------3-----------x-----1-----------1-----1-----1-----1/----------3-----x----||
B|-5-----------5-----x-----3-----------x-----1-----------1-----1-----1-----1/----------3-----x----||
G|-5-----------5-----x-----4-----------x-----2-----------2-----2-----2-----2/----------4-----x----|| x 4
D|-5-----------5-----x-----5-----------x-----3-----------3-----3-----3-----3/----------5-----x----||
A|-3-----------3-----x-----5-----------x-----3-----------3-----3-----3-----3/----------5-----x----||
E|-------------------------3-----------x-----1-----------1-----1-----1-----1/----------3-----x----||



VERSE I:
Guitar I
e|-8-----x-----x-----8-----------8-----8-----x-----11----11----11----11----11----11----11----x----||
B|-8-----x-----x-----8-----------8-----8-----x-----11----11----11----11----11----11----11----x----||
G|-9-----x-----x-----9-----------9-----9-----x-----12----12----12----12----12----12----12----x----|| x 3
D|-10----x-----x-----10----------10----10----x-----13----13----13----13----13----13----13----x----||
A|-10----x-----x-----10----------10----10----x-----13----13----13----13----13----13----13----x----||
E|-8-----x-----x-----8-----------8-----8-----x-----11----11----11----11----11----11----11----x----||
+
e|-8-----x-----x-----8-----------8-----8-----x-----4-----4-----4-----4-----4-----4-----4-----x----|
B|-8-----x-----x-----8-----------8-----8-----x-----4-----4-----4-----4-----4-----4-----4-----x----|
G|-9-----x-----x-----9-----------9-----9-----x-----5-----5-----5-----5-----5-----5-----5-----x----|
D|-10----x-----x-----10----------10----10----x-----6-----6-----6-----6-----6-----6-----6-----x----|
A|-10----x-----x-----10----------10----10----x-----6-----6-----6-----6-----6-----6-----6-----x----|
E|-8-----x-----x-----8-----------8-----8-----x-----4-----4-----4-----4-----4-----4-----4-----x----|
+
e|-8-----x-----x-----8-----------8-----8-----x-----11----11----11----11----11----11----11----x----||
B|-8-----x-----x-----8-----------8-----8-----x-----11----11----11----11----11----11----11----x----||
G|-9-----x-----x-----9-----------9-----9-----x-----12----12----12----12----12----12----12----x----|| x 3
D|-10----x-----x-----10----------10----10----x-----13----13----13----13----13----13----13----x----||
A|-10----x-----x-----10----------10----10----x-----13----13----13----13----13----13----13----x----||
E|-8-----x-----x-----8-----------8-----8-----x-----11----11----11----11----11----11----11----x----||
+
e|-8-----x-----x-----8-----------8-----8-----x-----4-----4-----4-----4-----4-----4-----4-----x----|
B|-8-----x-----x-----8-----------8-----8-----x-----4-----4-----4-----4-----4-----4-----4-----x----|
G|-9-----x-----x-----9-----------9-----9-----x-----5-----5-----5-----5-----5-----5-----5-----x----|
D|-10----x-----x-----10----------10----10----x-----6-----6-----6-----6-----6-----6-----6-----x----|
A|-10----x-----x-----10----------10----10----x-----6-----6-----6-----6-----6-----6-----6-----x----|
E|-8-----x-----x-----8-----------8-----8-----x-----4-----4-----4-----4-----4-----4-----4-----x----|
|                                                                                                 |
|                                                                                                 |
Guitar II                                                                                         |
e|------------------------------------------------------------------------------------------------||
B|------------------------------------------------------------------------------------------------||
G|------------------------------------------------------------------------------------------------|| x 3
D|------------------------------------------------------------------------------------------------||
A|------------------------------------------------------------------------------------------------||
E|------------------------------------------------------------------------------------------------||
+
e|------------------------------------------------------------------------------------------------|
B|------------------------------------------------------------------------------------------------|
G|------------------------------------------------------------------------------------------------|
D|-10----------------------------------10----8----------------------------------------------------|
A|-------------------------------------------------11----------------11----------11---------------|
E|-------------------8-----------8-----------------------------8-----------------------8----------|
+
e|------------------------------------------------------------------------------------------------||
B|------------------------------------------------------------------------------------------------||
G|------------------------------------------------------------------------------------------------|| x 4
D|------------------------------------------------------------------------------------------------||
A|------------------------------------------------------------------------------------------------||
E|------------------------------------------------------------------------------------------------||



CHORUS I:
Guitar I
e|-8-----------8-----x-----3-----------x-----1-----------1-----1-----1-----1/----------3-----x----||
B|-8-----------8-----x-----3-----------x-----1-----------1-----1-----1-----1/----------3-----x----||
G|-9-----------9-----x-----4-----------x-----2-----------2-----2-----2-----2/----------4-----x----|| x 4
D|-10----------10----x-----5-----------x-----3-----------3-----3-----3-----3/----------5-----x----||
A|-10----------10----x-----5-----------x-----3-----------3-----3-----3-----3/----------5-----x----||
E|-8-----------8-----x-----3-----------x-----1-----------1-----1-----1-----1/----------3-----x----||
|                                                                                                 |
|                                                                                                 |
Guitar II                                                                                         |
e|-------------------------3-----------x-----1-----------1-----1-----1-----1/----------3-----x----||
B|-5-----------5-----x-----3-----------x-----1-----------1-----1-----1-----1/----------3-----x----||
G|-5-----------5-----x-----4-----------x-----2-----------2-----2-----2-----2/----------4-----x----|| x 4
D|-5-----------5-----x-----5-----------x-----3-----------3-----3-----3-----3/----------5-----x----||
A|-3-----------3-----x-----5-----------x-----3-----------3-----3-----3-----3/----------5-----x----||
E|-------------------------3-----------x-----1-----------1-----1-----1-----1/----------3-----x----||



BRIDGE:
Guitar I
e|------------------------------------------------------------------------------------------------|
B|-------------------------------5-----------------------------------------------4----------------|
G|-------------------5-----------------5-----------------------------4-----------------4----------|
D|-------------5-----------------------------5-----------------4-----------------------------4----|
A|-3-----------------------------------------------2----------------------------------------------|
E|------------------------------------------------------------------------------------------------|
+
e|------------------------------------------------------------------------------------------------|
B|-------------------------------2-----------------------------------------------4----------------|
G|-------------------2-----------------2-----------------------------4-----------------4----------|
D|-------------2-----------------------------2-----------------4-----------------------------4----|
A|-0-----------------------------------------------2----------------------------------------------|
E|------------------------------------------------------------------------------------------------|
+
e|------------------------------------------------------------------------------------------------|
B|-------------------------------5-----------------------------------------------4----------------|
G|-------------------5-----------------5-----------------------------4-----------------4----------|
D|-------------5-----------------------------5-----------------4-----------------------------4----|
A|-3-----------------------------------------------2----------------------------------------------|
E|------------------------------------------------------------------------------------------------|
+
e|------------------------------------------------------------------------------------------------|
B|-------------------------------2-----------------------------------------------4----------------|
G|-------------------2-----------------2-----------------------------4-----------------4----------|
D|-------------2-----------------------------2-----------------4-----------------------------4----|
A|-0-----------------------------------------------2----------------------------------------------|
E|------------------------------------------------------------------------------------------------|
+
e|------------------------------------------------------------------------------------------------|
B|-------------------------------5-----------------------------------------------4----------------|
G|-------------------5-----------------5-----------------------------4-----------------4----------|
D|-------------5-----------------------------5-----------------4-----------------------------4----|
A|-3-----------------------------------------------2----------------------------------------------|
E|------------------------------------------------------------------------------------------------|
+
e|------------------------------------------------------------------------------------------------|
B|-------------------------------2-----------------------------------------------4----------------|
G|-------------------2-----------------2-----------------------------4-----------------4----------|
D|-------------2-----------------------------2-----------------4-----------------------------4----|
A|-0-----------------------------------------------2----------------------------------------------|
E|------------------------------------------------------------------------------------------------|
+
e|------------------------------------------------------------------------------------------------|
B|-------------------------------5-----------------------------------------------4----------------|
G|-------------------5-----------------5-----------------------------4-----------------4----------|
D|-------------5-----------------------------5-----------------4-----------------------------4----|
A|-3-----------------------------------------------2----------------------------------------------|
E|------------------------------------------------------------------------------------------------|
+
e|------------------------------------------------------------------------------------------------|
B|-------------------------------2-----------------------------------------------4-----4-----4----|
G|-------------------2-----------------2-----------------------------------4-----4-----4-----4----|
D|-------------2-----------------------------2-----------------------4-----4-----4-----4-----4----|
A|-0-----------------------------------------------2-----------2-----2-----2-----2-----2-----2----|
E|------------------------------------------------------------------------------------------------|
+
e|-1-----------#-----1-----------1-----1-----x-----x-----x-----x-----x-----x-----x-----x-----x----||
B|-1-----------#-----1-----------1-----1-----x-----x-----x-----x-----x-----x-----x-----x-----x----||
G|-2-----------#-----2-----------2-----2-----x-----x-----x-----x-----x-----x-----x-----x-----x----|| x 4
D|-3-----------#-----3-----------3-----3-----x-----x-----x-----x-----x-----x-----x-----x-----x----||
A|-3-----------#-----3-----------3-----3-----x-----x-----x-----x-----x-----x-----x-----x-----x----||
E|-1-----------#-----1-----------1-----1-----x-----x-----x-----x-----x-----x-----x-----x-----x----||
|                                                                                                 |
|                                                                                                 |
Guitar II                                                                                         |
e|------------------------------------------------------------------------------------------------||
B|------------------------------------------------------------------------------------------------||
G|------------------------------------------------------------------------------------------------|| x 12
D|------------------------------------------------------------------------------------------------||
A|------------------------------------------------------------------------------------------------||
E|------------------------------------------------------------------------------------------------||



VERSE II:
Guitar I
e|-8-----x-----x-----8-----------8-----8-----x-----11----11----11----11----11----11----11----x----||
B|-8-----x-----x-----8-----------8-----8-----x-----11----11----11----11----11----11----11----x----||
G|-9-----x-----x-----9-----------9-----9-----x-----12----12----12----12----12----12----12----x----|| x 3
D|-10----x-----x-----10----------10----10----x-----13----13----13----13----13----13----13----x----||
A|-10----x-----x-----10----------10----10----x-----13----13----13----13----13----13----13----x----||
E|-8-----x-----x-----8-----------8-----8-----x-----11----11----11----11----11----11----11----x----||
+
e|-8-----x-----x-----8-----------8-----8-----x-----4-----4-----4-----4-----4-----4-----4-----x----|
B|-8-----x-----x-----8-----------8-----8-----x-----4-----4-----4-----4-----4-----4-----4-----x----|
G|-9-----x-----x-----9-----------9-----9-----x-----5-----5-----5-----5-----5-----5-----5-----x----|
D|-10----x-----x-----10----------10----10----x-----6-----6-----6-----6-----6-----6-----6-----x----|
A|-10----x-----x-----10----------10----10----x-----6-----6-----6-----6-----6-----6-----6-----x----|
E|-8-----x-----x-----8-----------8-----8-----x-----4-----4-----4-----4-----4-----4-----4-----x----|
|                                                                                                 |
|                                                                                                 |
Guitar II                                                                                         |
e|------------------------------------------------------------------------------------------------||
B|------------------------------------------------------------------------------------------------||
G|------------------------------------------------------------------------------------------------|| x 4
D|------------------------------------------------------------------------------------------------||
A|------------------------------------------------------------------------------------------------||
E|------------------------------------------------------------------------------------------------||



CHORUS II:
Guitar I
e|-8-----------8-----x-----3-----------x-----1-----------1-----1-----1-----1/----------3-----x----||
B|-8-----------8-----x-----3-----------x-----1-----------1-----1-----1-----1/----------3-----x----||
G|-9-----------9-----x-----4-----------x-----2-----------2-----2-----2-----2/----------4-----x----|| x 4
D|-10----------10----x-----5-----------x-----3-----------3-----3-----3-----3/----------5-----x----||
A|-10----------10----x-----5-----------x-----3-----------3-----3-----3-----3/----------5-----x----||
E|-8-----------8-----x-----3-----------x-----1-----------1-----1-----1-----1/----------3-----x----||
+
e|-------------8----------------------------------------------------------------------------------|
B|-------------8----------------------------------------------------------------------------------|
G|-------------9----------------------------------------------------------------------------------|
D|-------------10---------------------------------------------------------------------------------|
A|-------------10---------------------------------------------------------------------------------|
E|-------------8----------------------------------------------------------------------------------|
|                                                                                                 |
|                                                                                                 |
Guitar II                                                                                         |
e|-------------------------3-----------x-----1-----------1-----1-----1-----1/----------3-----x----||
B|-5-----------5-----x-----3-----------x-----1-----------1-----1-----1-----1/----------3-----x----||
G|-5-----------5-----x-----4-----------x-----2-----------2-----2-----2-----2/----------4-----x----|| x 4
D|-5-----------5-----x-----5-----------x-----3-----------3-----3-----3-----3/----------5-----x----||
A|-3-----------3-----x-----5-----------x-----3-----------3-----3-----3-----3/----------5-----x----||
E|-------------------------3-----------x-----1-----------1-----1-----1-----1/----------3-----x----||
+
e|-------------8----------------------------------------------------------------------------------|
B|-------------8----------------------------------------------------------------------------------|
G|-------------9----------------------------------------------------------------------------------|
D|-------------10---------------------------------------------------------------------------------|
A|-------------10---------------------------------------------------------------------------------|
E|-------------8----------------------------------------------------------------------------------|



SONG STRUCTURE:

INTRO
VERSE I
CHORUS II
VERSE I
CHORUS II
BRIDGE
VERSE II
CHORUS II



That's it. Please leave comments or suggestions, corrections, requests, etc.
Cheers!
-Bennyshambles78-



            
            
Suggest correction
Creating personal tab
Creating personal tab
You can edit any tab online and save it as your Personal.

You can edit, replace or remove any tab part or add personal notes – all changes will be seen only by you.

Personal tabs can be accessed anytime from any device, even offline.
Learn more »
Give kudos to tab author, rate the tab!
1 2 3 4 5
comments
print report bad tab
guest
You may want to rate the tab now too:
select rating
Wanna post a correction for this tab? Suggest correction