Oops, an error
Loading. Please wait.

Humanos bass

23 views 1 this week
no commentswrite comment
1 2 3 4 5
3 more votes to show rating
add to favorites
×
Save as Personal and add changes to this tab that will be seen only by you. Learn more ›
×
You can save this tab as Personal to edit and correct it or add notes. All changes will be seen only by you. Learn more »
launch autoscroll
font size
0
reset
guitar tuner
edit
Autoscroll
slow
fast
+/-
esc
set tempo
stop
intro:
4:-----------1-1-1-1-1-1---
3:-5-5/1-1-----------------
2:--------------------------
1:--------------------------


verso:
4:-------------------1-1-1-1----------5-5-5-5-3-3-3-3---
3:-5-5-5-5-1-1-1-1----------1-1-1-1---------------------
2:---------------------------------------------------------
1:---------------------------------------------------------


puente:
4:-1--1--5--5----------------------------1--1--1-3/5----
3:--------------5--5--3--3--1--1--3--3---------------3--
2:--------------------------------------------------------
1:--------------------------------------------------------      2 times


coro:
4:-1-1-1-1---------------------------------------------------------
3:----------3-3-3-3-5-5-5-5-3-3-3-3-1-1-1-1-1-1-1-1-3-3-3-3--
2:------------------------------------------------------------------
1:------------------------------------------------------------------


ya se que esta muy facil pero que quieren asi va
y eso no se puede cambiar asi que espero y 
disfruten la rola con el solo que mande y este 
tab que como la segunda parte de el tab de humanos
que mande y por cierto pienso seguir mandando
mas rolas de este grupo que a mucho se les habia
olvidado.

            
            
Suggest correction
Creating personal tab
Creating personal tab
You can edit any tab online and save it as your Personal.

You can edit, replace or remove any tab part or add personal notes – all changes will be seen only by you.

Personal tabs can be accessed anytime from any device, even offline.
Learn more »
Give kudos to tab author, rate the tab!
1 2 3 4 5
comments
print report bad tab
guest
Wanna post a correction for this tab? Suggest correction