Oops, an error
Loading. Please wait.

Nahual tab

56 views 1 this week
no commentswrite comment
1 2 3 4 5
3 more votes to show rating
add to favorites
×
Save as Personal and add changes to this tab that will be seen only by you. Learn more ›
×
You can save this tab as Personal to edit and correct it or add notes. All changes will be seen only by you. Learn more »
launch autoscroll
font size
0
reset
how to read this tab
guitar tuner
edit
Autoscroll
slow
fast
+/-
esc
set tempo
stop
"Estabamos en el velorio de Nicanor Gonzalez
alla en San Goloteo el Chico
cuando de repente,
alla en el cerro, vimos dos bolsones de fuego
era la herencia del Chipo que les estaba dejando
era......El Nahual!!!

Fig.1 (Gtr.1 & Gtr.2)                                        
E|--------------------------------------------------------------------|
B|---------------6--6--X--------------------------6--6---X----------6-|
G|--4--4--X--6--6--X--4------X--4--4--X--6--6--X--4------6------------|
D|--5--5--X--6--6--X--5------X--5--5--X--6--6--X--5------6------------|
A|--5--5--X--4--4--X--5------X--5--5--X--4--4--X--5------4------------|
E|--3--3--X--------------3------X--3--3--X---------------3------------|

Fig.2 (Gtr.1)
E|--------------------------------------------------------------------|
B|--------------------------------------------------------------------|
G|--------------------------------------------------------------------|
D|--------------------------------------------------------------------|
A|----------3--4--3------------------------3--4--3------------4~------|
E|--3--4--------------5--3--------3--4--------------5--3--------------|

w/Fig.2
Nahual con machetes soy yo
no te la vas a acabar
las manos te voy a cortar
y sin mezcal te voy a dejar
Nahual con machetes soy yo
si no se~orita ya no
Nahual con machetes soy yo
Nahual con machete

Coro:
Yo soy el Nahual......
Fig.3 (Gtr.1)
E|------------------------------------------------------------|
B|------------------------------------------------------------|
G|------------------------------------------------------------|
D|------------------------------------------------------------|
A|------------------------------------------------------------|
E|--3-3-3-5-5-5-6-6-6-7-7-7-3-3-3-5-5-5-6-6-6-7-7-7-----------|

Fill.1 (Gtr.2)  w/wah wah pedal
E|------------------------------------------------------------|
B|--15-15-15-15-15-15-14-14-14-14-14-14---12--14--12--10~-----|
G|------------------------------------------------------------|
D|------------------------------------------------------------|
A|------------------------------------------------------------|
E|------------------------------------------------------------|

repite el Fig.1:
Nahual
Nahual con patas de gallo
Nahual en forma de lobo
Nahual con cuerpo de guajolote

w/Fig.2
Nahual con machetes soy yo
no te la vas a acabar
a tu hermana me voy a chingar 
y sin mezcal te voy a dejar
Nahual con machetes soy yo
si no se~orita ya no
Nahual con machetes soy yo
Nahual co machete....

Repite el coro con Fig.3 & Fill.1

Nahual
Nahual con cara de paisano
Nahual con su pulque en la mano

Nahual, yo soy el Nahual....

Despues se toca este Fig varias veces:
Fig.4 (Gtr.1)
E|----------------------------------------------------------------------|
B|----------------------------------------------------------------------|
G|----------------------------------------------------------------------|
D|----------------------------------------------------------------------|
A|--2------0--2------0--2------0--2--3--2--0----------------------------|
E|------3----------3----------3-----------------------------------------|

Fill.2 (Gtr.2)
E|----------------------------------------------------------------------|
B|--7------5--7-----5--7------5--7--8--7--5-----------------------------|
G|-----7----------7----------7------------------------------------------|
D|----------------------------------------------------------------------|
A|----------------------------------------------------------------------|
E|----------------------------------------------------------------------|

            
            
Suggest correction
Creating personal tab
Creating personal tab
You can edit any tab online and save it as your Personal.

You can edit, replace or remove any tab part or add personal notes – all changes will be seen only by you.

Personal tabs can be accessed anytime from any device, even offline.
Learn more »
Give kudos to tab author, rate the tab!
1 2 3 4 5
comments
print report bad tab
guest
Wanna post a correction for this tab? Suggest correction