Oops, an error
Loading. Please wait.

Amigo Apasionado tab

version 2
version 2

Whole song

49 views 1 this week
no commentswrite comment
1 2 3 4 5
3 more votes to show rating
add to favorites
×
Save as Personal and add changes to this tab that will be seen only by you. Learn more ›
×
You can save this tab as Personal to edit and correct it or add notes. All changes will be seen only by you. Learn more »
launch autoscroll
font size
0
reset
how to read this tab
guitar tuner
edit
Autoscroll
slow
fast
+/-
esc
set tempo
stop
hola a todos esta es una buena cancion,
se la dedico a mi amiga Lisbia Berenice
y asi la saqe yo y pues suena bien
aver si le gusta¡¡

AMIGO APASIONADO - VICTOR Y LEO


 e--7-------7----5-----------5----3------
 B--5-----5---5----------3----3--------3-
 G--5---5-------5-------0-------0-----0--
 D--7-7--------------4-------------2-----
 A--7------------5----------------3------
 E---------------------------------------


 e-3-------5-----5--------------
 B--1-------3-----3-----------5-
 G------------0-----0-------5---
 D-----------------------7------
 A---3/5--------------5-7-------
 E------------------------------

 e-7-----5----------
 B--5-------------3-
 G----5--------0----
 D------------4-----
 A-------5----------
 E------------------

 e--5-----3-------3----------5---
 B----3---------1---1----------3-
 G------0-----0------------------
 D----------2--------------------
 A--------3-----------3-3/5------
 E-------------------------------

 C               G
 e-------------------------------
 B-1-0-1-0--1-0------------------
 G-------------2--4-2-4-2--4-2-0-
 D-------------------------------
 A-------------------------------
 E-------------------------------

  C               G       D C  G
 e-----------------------------3-
 B-1-0-1-0--1-0----------------3-
 G-------------2--4-2-2/4-2-0--0-
 D-----------------------------0-
 A-----------------------------2-
 E-----------------------------3-

 G
 Lo piense bien
                     D
 Y mil motivos encontre
                       Em
 Lo piense bien y té diré
     Am                D  D4
 Que amo haberte conocido
         G
 Nada mejor
                           D
 Que al fin dejarte-lo saber
                          Em
 Pues es tan triste esconder
     Am                 D  D4
 Un sentimiento tan bonito

 Riff1
      C
 Hoy mismo te voy a buscar
 G
 Hablar de mi

 Riff2
           C
 Se que no has llegado a imaginar
         G              D   C
 Que yo pueda amarte así

 G                D         Em
 Siempre fui un buen amigo fiel
            C            G
 Pero no se ya si así va ser
                D            C
 Siempre te conté secretos mios
                 D          G
 Recuerdo que de ti me enamore
             D            Em
 Este amor entro en mi corazón
                C            G
 Lo que eras se ha quedado atrás
              D            C
 Me puedes decir que sí o no
              D          G
 Pero solo amigos ya no más

  C               G
 e-------------------------------
 B-1-0-1-0--1-0------------------
 G-------------2--4-2-4-2--4-2-0-
 D-------------------------------
 A-------------------------------
 E-------------------------------
  C               G       D C  G
 e-----------------------------3-
 B-1-0-1-0--1-0----------------3-
 G-------------2--4-2-2/4-2-0--0-
 D-----------------------------0-
 A-----------------------------2-
 E-----------------------------3-


 e---------------------
 B---------------------
 G---0-2-4-5-4-2-0-2-0-
 D--0------------------
 A---------------------
 E---------------------


        G
 Nada mejor
                           D
 Que al fin dejartelo saber
                          Em
 Pues es tan triste esconder
     Am                 D  D4
 Un sentimiento tan bonito

 Riff1
      C
 Hoy mismo te voy a buscar
 G
 Hablar de mi

 Riff2
           C
 Se que no has llegado a imaginar
         G              D   C
 Que yo pueda amarte así

 G                D         Em
 Siempre fui un buen amigo fiel
            C            G
 Pero no se ya si así va ser
                D            C
 Siempre te conté secretos mios
                 D          G
 Recuerdo que de ti me enamore
             D            Em
 Ese amor entro en mi corazón
                C            G
 Lo que eras se ha quedado atrás
              D            G
 Me puedes decir que sí o no
              D          G
 Pero solo amigos ya no más

 Solo:
  Am          D
 e--------------
 B--------------
 G-4-4/5-4------
 D--------4/5-4-
 A--------------
 E--------------

  Em                   D
 e-------2-3-2-3-2-3/5-0-
 B----3-5----------------
 G-2/4-------------------
 D-----------------------
 A-----------------------
 E-----------------------

   Am         D          G
 e-0-0-0-2-3-3-2---------3
 B--------------3--------3
 G---------------2--2/4--0
 D-----------------------0
 A-----------------------2
 E-----------------------3

 G                D         Em
 Siempre fui un buen amigo fiel
            C            G
 Pero no se ya si así va ser
                D            C
 Siempre te conté secretos mios
                 D          G
 Recuerdo que de ti me enamore
             D            Em
 Ese amor entro en mi corazón
                C            G
 Lo que eras se ha quedado atrás
              D            C
 Me puedes decir que sí o no
              D      C
 Pero solo amigoooos  ya no más

  C               G
 e-------------------------------
 B-1-0-1-0--1-0------------------
 G-------------2--4-2-4-2--4-2-0-
 D-------------------------------
 A-------------------------------
 E-------------------------------
  C               G
 e----------------3
 B-1-0-1-0--1-0---3
 G-------------2--0
 D----------------0
 A----------------2
 E----------------3

 Riffs:

 Riff1
 E------
 B-8-7--
 G----7-
 D------
 A------
 E------

 e-8-7---8-7--
 B----8-----8-
 G------------
 D------------
 A------------
 E------------

 Este se hace con acordeon en la parte
 de "Hoy mismo te voy a buscar" y va asi

 e----10/12-10-
 B-8-----------
 G-------------
 D-------------
 A-------------
 E-------------

 D4:

 E-3-
 B-3-
 G-2-
 D-0-
 A-0-
 E-0-

 Bueno eso es todo
 y ojala les guste
 adios amigos
 Su amigo Gollo
 y un saludo para mi amiga ANNY
 alias la "Alexandritha"
 qe la qiero muchototote jaja

            
            
Suggest correction
Creating personal tab
Creating personal tab
You can edit any tab online and save it as your Personal.

You can edit, replace or remove any tab part or add personal notes – all changes will be seen only by you.

Personal tabs can be accessed anytime from any device, even offline.
Learn more »
Give kudos to tab author, rate the tab!
1 2 3 4 5
comments
print report bad tab
guest
Wanna post a correction for this tab? Suggest correction