Oops, an error
Loading. Please wait.

Eva bass

version 1
version 1

Whole song

44 views 1 this week
no commentswrite comment
1 2 3 4 5
3 more votes to show rating
add to favorites
×
Save as Personal and add changes to this tab that will be seen only by you. Learn more ›
×
You can save this tab as Personal to edit and correct it or add notes. All changes will be seen only by you. Learn more »
launch autoscroll
font size
0
reset
guitar tuner
edit
Autoscroll
slow
fast
+/-
esc
set tempo
stop
TOQUEN ESTE TEMA CON RITMO DE BLUES, AHI VA:

G-----------------------------------------------
D----------------0-0-3-4-0-0-3-4----------------
A-0-0-3-4-0-0-3-4----------------0-0-3-4-2-2-4-2
E-----------------------------------------------

ESTO SE USA PARA LA SIGUIENTE PARTE:

eva, no te vayas con adan
eva, mi serpiente vale mas
eva, hay mas manzanas por aqui
eva, hoy te voy a hacer feliz

AHORA CAMBIA Y HACE:

G---------------------------------------
D--0-0-0-0-0-0-0-0-0-0------------------
A---------------------0-0-0-0-0-0-0-0-0-
E---------------------------------------

del paraiso, vamos a escapar
el flaco de barba, nos quiere cerrar
conozco la historia, lo van a colgar

Y AHORA HACE ESTO:

G---------------------------------------
D---------------------------------------
A-2-2-2-2-2-2-2-2-2-2-2-----------------
E------------------------0--------------

sacate la hoja            te voy a garchar, te voy g..

ES ESO Y VA DEVUELTA CON LO DEL PRINCIPIO

BUENO ESTO ES TODO EL TEMA
UN SALUDO PARA LOS GAYS DE LA THOPSON
VIRU.

            
            
Suggest correction
Creating personal tab
Creating personal tab
You can edit any tab online and save it as your Personal.

You can edit, replace or remove any tab part or add personal notes – all changes will be seen only by you.

Personal tabs can be accessed anytime from any device, even offline.
Learn more »
Give kudos to tab author, rate the tab!
1 2 3 4 5
comments
print report bad tab
guest
Wanna post a correction for this tab? Suggest correction