Oops, an error
Loading. Please wait.

Eva tab

version 1
version 1

Whole song

69 views 1 this week
no commentswrite comment
1 2 3 4 5
3 more votes to show rating
add to favorites
×
Save as Personal and add changes to this tab that will be seen only by you. Learn more ›
×
You can save this tab as Personal to edit and correct it or add notes. All changes will be seen only by you. Learn more »
launch autoscroll
font size
0
reset
how to read this tab
guitar tuner
edit
Autoscroll
slow
fast
+/-
esc
set tempo
stop
Riff:
E//-----------------------------------------------------------------------------------/
B//----------------------------------------------------------------------------------/
G//---------------------2-2-2-----2-2-2------------------------2-2------------------/
D//---2-2-2----2-2-2----0-0-3h4---0-0-3h4--2-2-2-----2-2-2-----0-0-3h4(deja sonar)-/
A//---0-0-3h4--0-0-3h4---------------------0-0-3h4---0-0-3h4----------------------/
E//------------------------------------------------------------------------------/

E//-----------------------------------------------------------------------------------/
B//----------------------------------------------------------------------------------/
G//---------------------2-2-2-----2-2-2------------------------2-2------------------/
D//---2-2-2----2-2-2----0-0-3h4---0-0-3h4--2-2-2-----2-2-2-----0-0-3h4(deja sonar)-/
A//---0-0-3h4--0-0-3h4---------------------0-0-3h4---0-0-3h4----------------------/
E//------------------------------------------------------------------------------/

Punteo Inicial:
e------------------------------------------
b-------2------2--2/7--7-7\5\3-------------
g--1/2----1/2------------------------------
d------------------------------------------
a------------------------------------------
E------------------------------------------

e------------------------------------------
b-------2------2--2/9-9--------------------
g--1/2----1/2------------------------------
d------------------------------------------
a------------------------------------------
E------------------------------------------

e------------------------------------------
b-------2------2--2/7--7-7\5\3-------------
g--1/2----1/2------------------------------
d------------------------------------------
a------------------------------------------
E------------------------------------------

e------------------------------------------
b-------2------2--2/9-9--------------------
g--1/2----1/2------------------------------
d------------------------------------------
a------------------------------------------
E------------------------------------------

Riff/Punteo
eva no te vayas con adan

Riff/Punteo
eva mi serpiente vale mas

Riff/Punteo
eva hay mas manzanas por aqui

Riff/Punteo
eva hoy te voy a hacer feliz

Estribillo:

Hace asi:

Riff 2
e--------------------------------------------
b--------------------------------------------
g---2-2-0-0---2-2-0-0------------------------
d---0-0-3-4---0-0-3-4-----2-2-0-0---2-2-0-0--
a-------------------------0-0-3-4---0-0-3-4--
E--------------------------------------------

Riff 2
en el paraiso vamos a escapar

Riff 2
el flaco de barba nos quiere cerrar

Riff 2
conozco la historia lo van a colgar

Riff 2
sacate la hoja te voy a garchar
te voy a garchar

Hace asi:

e------------------------------------------
b-------2------2--2/7--7-7\5\3-------------
g--1/2----1/2------------------------------
d------------------------------------------
a------------------------------------------
E------------------------------------------

e------------------------------------------
b-------2------2--2/9-9--------------------
g--1/2----1/2------------------------------
d------------------------------------------
a------------------------------------------
E------------------------------------------

e------------------------------------------
b-------2------2--2/7--7-7\5\3-------------
g--1/2----1/2------------------------------
d------------------------------------------
a------------------------------------------
E------------------------------------------

e------------------------------------------
b-------2------2--2/9-9--------------------
g--1/2----1/2------------------------------
d------------------------------------------
a------------------------------------------
E------------------------------------------

1|--9/1212-9--------9/1414-12-10~---9/1212-9-------------------------------------|
2|-----------10~-----------------------------10--10-12-12------------------------|
3|-------------------------------------------------------------------------------|
4|-------------------------------------------------------------------------------|

1|--9/1212-9--------9/1414-12-10~---9/1212-9-------------------------------------|
2|-----------10~-----------------------------10--10-10/12-12/11/10~--------------|
3|-------------------------------------------------------------------------------|
4|-------------------------------------------------------------------------------|

Riff/Punteo
eva no te vayas con adan

Riff/Punteo
eva mi serpiente vale mas

Riff/Punteo
eva hay mas manzanas por aqui

Riff/Punteo
eva hoy te voy a hacer feliz

Riff 2
en el paraiso vamos a escapar

Riff 2
el flaco de barba nos quiere cerrar

Riff 2
conozco la historia lo van a colgar

Riff 2
sacate la hoja te voy a garchar
te voy a garchar

e------------------------------------------
b-------2------2--2/7--7-7\5\3-------------
g--1/2----1/2------------------------------
d------------------------------------------
a------------------------------------------
E------------------------------------------

e------------------------------------------
b-------2------2--2/9-9--------------------
g--1/2----1/2------------------------------
d------------------------------------------
a------------------------------------------
E------------------------------------------

e------------------------------------------
b-------2------2--2/7--7-7\5\3-------------
g--1/2----1/2------------------------------
d------------------------------------------
a------------------------------------------
E------------------------------------------

e------------------------------------------
b-------2------2--2/9-9--------------------
g--1/2----1/2------------------------------
d------------------------------------------
a------------------------------------------
E------------------------------------------

1|--9/1212-9--------9/1414-12-10~---9/1212-9-------------------------------------|
2|-----------10~-----------------------------10--10-12-12------------------------|
3|-------------------------------------------------------------------------------|
4|-------------------------------------------------------------------------------|

1|--9/1212-9--------9/1414-12-10~---9/1212-9-------------------------------------|
2|-----------10~-----------------------------10--10-10/12-12/11/10~--------------|
3|-------------------------------------------------------------------------------|
4|-------------------------------------------------------------------------------|

Riff 2
en el paraiso vamos a escapar

Riff 2
el flaco de barba nos quiere cerrar

Riff 2
conozco la historia lo van a colgar

Riff 2
sacate la hoja te voy a garchar
te voy a garchar

e------------------------------------------
b-------2------2--2/7--7-7\5\3-------------
g--1/2----1/2------------------------------
d------------------------------------------
a------------------------------------------
E------------------------------------------

e------------------------------------------
b-------2------2--2/9-9--------------------
g--1/2----1/2------------------------------
d------------------------------------------
a------------------------------------------
E------------------------------------------

e------------------------------------------
b-------2------2--2/7--7-7\5\3-------------
g--1/2----1/2------------------------------
d------------------------------------------
a------------------------------------------
E------------------------------------------

e------------------------------------------
b-------2------2--2/9-9--------------------
g--1/2----1/2------------------------------
d------------------------------------------
a------------------------------------------
E------------------------------------------

e---9/1212-9--------9/1414-12-10~---9/1212-9-------------------------------------
b------------10~-----------------------------10--10-12-12------------------------
g--------------------------------------------------------------------------------
d--------------------------------------------------------------------------------
a--------------------------------------------------------------------------------
E--------------------------------------------------------------------------------

e---9/1212-9--------9/1414-12-10~---9/1212-9-------------------------------------
b------------10~-----------------------------10--10-10/12-12/11/10~--------------
g--------------------------------------------------------------------------------
d--------------------------------------------------------------------------------
a--------------------------------------------------------------------------------
E--------------------------------------------------------------------------------

e--------------------------------------------------------------------------------
b---7/10-10-10--|-----7/10-10-10--|----7/10-10-10-10/12~-------------------------
g--------------------------------------------------------------------------------
d--------------------------------------------------------------------------------
a--------------------------------------------------------------------------------
E--------------------------------------------------------------------------------
Repite el Punteo inicial hasta que se aca la cancion

            
            
Suggest correction
Creating personal tab
Creating personal tab
You can edit any tab online and save it as your Personal.

You can edit, replace or remove any tab part or add personal notes – all changes will be seen only by you.

Personal tabs can be accessed anytime from any device, even offline.
Learn more »
Give kudos to tab author, rate the tab!
1 2 3 4 5
comments
print report bad tab
guest
Wanna post a correction for this tab? Suggest correction