Oops, an error
Loading. Please wait.

La Simpatica Demonia tab

version 2
version 2

Whole song

64 views 1 this week
no commentswrite comment
1 2 3 4 5
3 more votes to show rating
add to favorites
×
Save as Personal and add changes to this tab that will be seen only by you. Learn more ›
×
You can save this tab as Personal to edit and correct it or add notes. All changes will be seen only by you. Learn more »
launch autoscroll
font size
0
reset
how to read this tab
guitar tuner
edit
Autoscroll
slow
fast
+/-
esc
set tempo
stop
   Vibrato>>>                                           ~
   Estiradas>>                                          B
   Estirar y bajar>>>                                   ba
   Slide>>>                                             s
   Sonidos armónicos>>>                                 <>
   Ligados ascendentes>                                 h
   Ligados descendentes>                                p
   Se mantieneestirada>                                 /
   Baja estirada                                        //
   Tremolo                                              *
   Toca nota siguiente con estirada mantenida           b/


INTRO

                   C5             A#5
e|---------------------------------------
B|-11--11--------------------------------
G|-10b-10ba-8--10--8---8--10-8---6s77----
D|-------------10--8---8--10-8---6s77----
A|---------------------------------------
E|---------------------------------------

   C5            A#5
e|---------------------------------------
B|---------------------------------------
G|-10-10--8h10--6s7-7-------------------- X2
D|-10-10--8h10--6s7-7--------------------
A|---------------------------------------
E|---------------------------------------
   ESTO TAMBIEN LO HACE EN LA ESTROFA

   C5                     A#5
e|---------------------------------------
B|-11--11--------------------------------
G|-10b----10p8--------------------8~-----
D|-------------10-10p8----8-9-10---------
A|---------------------10----------------
E|---------------------------------------
  ESTO TAMBIEN LO HACE EN VARIAS PARTES
  DEL TEMA


SOLO

        C5    A#5              C5   A#5
e|-------8-8-88-8h10-8---------8-8-11-11-8-11-11-8-
B|-------8-8-88-8h10-8---------8-8-10-10-8-10-10-8-
G|-9-8h9---------------8-9-8h9--------------------- X2
D|-------------------------------------------------
A|-------------------------------------------------
E|-------------------------------------------------

   C5                       A#5
e|11-11-8-11-11-8-11-11-8-|----------------------|
B|10-10-8-10-10-8-10-10-8-|----------------------|
G|------------------------|-10ba-8----8-10-8-X2--|
D|------------------------|--------10------------|
A|------------------------|----------------------|
E|------------------------|----------------------|

    A#5              C5          A#5
e|----------------------------------------
B|---------------------------------11~----
G|-10ba-8----8----8-------8~---s12----12--
D|--------10---10---10--------------------
A|----------------------------------------
E|----------------------------------------

              C5                   A#5
e|---------------15-----15-----15-----15---------
B|-s13-15-13-15b----15b----15b----15b----15//13~-
G|-----------------------------------------------
D|-----------------------------------------------
A|-----------------------------------------------
E|-----------------------------------------------


eso seria todo lo que hace la primera guitarra
y los acordes qe toca pity los tocan en forma de rocanrol

aguante viejas locass

            
            
Suggest correction
Creating personal tab
Creating personal tab
You can edit any tab online and save it as your Personal.

You can edit, replace or remove any tab part or add personal notes – all changes will be seen only by you.

Personal tabs can be accessed anytime from any device, even offline.
Learn more »
Give kudos to tab author, rate the tab!
1 2 3 4 5
comments
print report bad tab
guest
Wanna post a correction for this tab? Suggest correction