Oops, an error
Loading. Please wait.

Me Gustas Mucho tab

version 1
version 1

Whole song

539 views 1 this week
no commentswrite comment
1 2 3 4 5
2 more votes to show rating
add to favorites
×
Save as Personal and add changes to this tab that will be seen only by you. Learn more ›
×
You can save this tab as Personal to edit and correct it or add notes. All changes will be seen only by you. Learn more »
launch autoscroll
font size
0
reset
how to read this tab
guitar tuner
edit
Autoscroll
slow
fast
+/-
esc
set tempo
stop
Intro: MI            Riff
E-------------------------------
B-------------------------------
G-------------------------------
D-2---2--2---2--2---------------
A-2---2--2---2--2----0-2-0------
E-0---0--0---0--0-----------3-0-


E---------------------
B-3h5-----------------
G-------2h4-2h4-2h4---
D---------------------
A---------------------
E---------------------


MI                              Riff
Nos conocimos bailando en un bar
MI                              Riff
Tus piernas volaban las sabia llevar
MI                              Riff (Silencio)
A mi me gustaban como las movias

Y juntos nos fuimos a pernoctar.
                  LA
es que me gustas mucho
             MI
me gustas mucho
              LA
me gustas mucho
             MI
me gustas mucho.

Intro: MI

MI                              Riff
me gusta como te vestis y como andas
MI                         Riff
me gusta tu pelo, tu cuerpo
MI                       Riff (Silencio)
me gustaria poderte bañar

tambien secarte y colcerte a enjuagar.
                    LA
porque me gustas mucho
                MI
me gustas mucho,nena
              LA
me gustas mucho
                SI
sera que me gustas tanto debe ser que
                MI
no puedo disimular
de veras, eaaa


Solo

E--------------------------
B--------------------------
G--------------------------
D-----------------------2--   2 veces
A---5-7-------7-5-------2--
E-7---------7-----7-5-3----

E--------------------------
B--------------------------
G--------------------------
D-----------------------2--  1 vez
A---5-9-------7-5-------2--
E-7---------7-----7-5-3----

E----------------------------
B----------------------------
G---7-9-------9-7------------ 2 veces
D-9---------9-----9-7-5------
A-------------------------2--
E-------------------------2--

E----------------------------
B----------------------------
G---7-11------9-7------------ 1 vez
D-9---------9-----9-7-5------
A-------------------------2--
E-------------------------2--

Sigue Igual Que Antes.
Escuchar La Cancion Y Sale Facil.

            
            
Suggest correction
Creating personal tab
Creating personal tab
You can edit any tab online and save it as your Personal.

You can edit, replace or remove any tab part or add personal notes – all changes will be seen only by you.

Personal tabs can be accessed anytime from any device, even offline.
Learn more »
Give kudos to tab author, rate the tab!
1 2 3 4 5
comments
print report bad tab
guest
Wanna post a correction for this tab? Suggest correction