Oops, an error
Loading. Please wait.

Que Vas A Hacer Tan Sola Hoy bass

version 2
version 2

Whole song

49 views 1 this week
no commentswrite comment
1 2 3 4 5
3 more votes to show rating
add to favorites
×
Save as Personal and add changes to this tab that will be seen only by you. Learn more ›
×
You can save this tab as Personal to edit and correct it or add notes. All changes will be seen only by you. Learn more »
launch autoscroll
font size
0
reset
guitar tuner
edit
Autoscroll
slow
fast
+/-
esc
set tempo
stop
Intro:


1|-------------------------------------------|
2|-------------------------------------------|
3|-------------------------------------------|
4|-7-6-5-5/7-7-6-5-5-6-7-7-6-5-5-6-7-7799977-|


1|----------------------------
2|----------------------------
3|----------------------------
4|3/5-5-3/5-5-3/5-5-3/5-5-3/5-...

   --------------------------------------|x3
   --------------------------------------|
   --------------------------------------|
...5/7-5/7-7-5/7-7-5/7-7-5/7-7-5/7-7-7-5-|


1|---------------------------------
2|---------------------------------
3|---------------------------------
4|-3/5-5-3/5-5-3/5-5-3/5-5-3/5-5/7- ...

     -------------------------------------------|
     -------------------------------------------|
     -------------------------------------------|
.... -5/7-7-5/7-7-5/7-7-5/7-7-5/7-7-7/9-9-7-7-77|


       A               B
1|---------------|---------------|
2|----7-5-5-5-7--|----9-7-7-7-9--|
3|-----7---7-----|-----9---9-----|
4|-55------------|5/7-7----------|


A
Nos conocimos de casualidad
     B                                B-Bb-A [ 1|--7-6-5-| ]
vos ibas en tu auto y yo por la ciudad
    A
caminando con amigos viendo chicas pasar,
   B
y vos cruzaste justo y entonces quise hablarte
      A
pero mostraste tus dientes y me gruñiste,
   B
porque soy diferente a lo que quiere tu papá,
       A
pero aceptame como soy,soy muy diferente a vos,
               B
pero ¿qué vas hacer tán sola hoy?.
      B -Bb- A [ 1|--7-6-5-| ]
...   A-cep-tame como soy,soy muy diferente a vos,
               B
pero ¿qué vas hacer tán sola hoy?.


Nena yo no quiero joderte
solo quiero estar un rato más con vos.
juro que no quiero comprometerte,
ni quiero que tu novio sepa lo que hicimos hoy.


INTER:

1|-----------------------------
2|-----------------------------
3|-----------------------------
4|-3/5-5-3/5-5-3/5-5-3/5-5-3/5-...

   -------------------------------------|x3
   -------------------------------------|
   -------------------------------------|
...5/7-5/7-7-5/7-7-5/7-7-5/-7-5/7-7-7-5-|

1|------------------------------------------------------------|
2|------------------------------------------------------------|
3|------------------------------------------------------------|
4|-3/5-5-3/5-5-3/5-5-3/5-5-3/5-5/7-5/7-7-5/7-7-5/7-7-5/7-7-5/7|


Nena yo no quiero joderte...


FINAL:

Base en A y B:

1|-----------------------------
2|-----------------------------
3|-----------------------------
4|-3/5-5-3/5-5-3/5-5-3/5-5-3/5-...

   -------------------------------------|
   -------------------------------------|
   -------------------------------------|
...5/7-5/7-7-5/7-7-5/7-7-5/7-7-5/7-7-7-5|

1|-----------------------------
2|-----------------------------
3|-----------------------------
4|-3/5-5-3/5-5-3/5-5-3/5-5-3/5-...

   -------------------------------------|
   -------------------------------------|
   -------------------------------------|
...5/7-7-5/7-7-5/7-7-5/7-7-5/7-7-7-7-7-7|

Base en A y B (x8):

       A               B
1|---------------|---------------|
2|----7-5-5-5-7--|----9-7-7-7-9--|
3|-----7---7-----|-----9---9-----|
4|-55------------|5/7-7----------|

Bueno aka les dejo esta transcripcion... la anterior estaba BN
pero esta esta mas completa!
espero ke les sirva!!


**JUAN79**

            
            
Suggest correction
Creating personal tab
Creating personal tab
You can edit any tab online and save it as your Personal.

You can edit, replace or remove any tab part or add personal notes – all changes will be seen only by you.

Personal tabs can be accessed anytime from any device, even offline.
Learn more »
Give kudos to tab author, rate the tab!
1 2 3 4 5
comments
print report bad tab
guest
Wanna post a correction for this tab? Suggest correction