Oops, an error
Loading. Please wait.

Ruta 66 tab

version 2
version 2

Whole song

38 views 1 this week
no commentswrite comment
1 2 3 4 5
3 more votes to show rating
add to favorites
×
Save as Personal and add changes to this tab that will be seen only by you. Learn more ›
×
You can save this tab as Personal to edit and correct it or add notes. All changes will be seen only by you. Learn more »
launch autoscroll
font size
0
reset
how to read this tab
guitar tuner
edit
Autoscroll
slow
fast
+/-
esc
set tempo
stop
RUTA 66-VIEJAS LOCAS

  Riff sobre A5    Riff sobre D5    Riff sobre E5
e|---------------|----------------|----------------
B|----7-5--------|-----8-8p7------|----10-10p9-----
G|----7-5--------|-----7-7--------|----9---9-------
D|---------7-----|----------------|----------------
A|---------------|----------------|----------------
E|---------------|----------------|----------------


         A5       D5           A5
Well if you ever plan to motor west

          D5                 D5                 A5
Just take my way that's the highway that's the best

         E5        D5   A5
Get your kicks on Route 66


Well it winds from Chicago to L.A.
More than 2000 miles all the way
Get your kicks on Route 66

A5                           A5
Well it goes from St Louis, down to Missouri

A5
Oklahoma city looks oh so pretty

       D5                D5            A5
You'll see Amarillo and Gallup, New Mexico

 E5                 D5
Flagstaff, Arizona don't forget Winona

A5
Kingsman, Barstaw, San Bernadino

Would you get hip to this kindly trip
And go take that California trip
Get your kicks on Route 66

  Solo
e|--5----5----5----5----5----5----5------------------
B|--5----5----5----5----5----5----5------------------
G|----7b---7b---7b---7b---7b---7b----7b-7b-7ba-p5----
D|------------------------------------------------7--
A|---------------------------------------------------
E|---------------------------------------------------

e|--8--8--8--8----7-7-7--5-5-5--3-3-3---------------------------
B|-s10-10-10-10---8-8-8--7-7-7--5-5-5--7-5----------------------
G|-------------------------------------7-5h6--7b-7b-7b-7ba-p5---
D|------------------------------------------------------------7-
A|--------------------------------------------------------------
E|--------------------------------------------------------------

e|-s10-10-10--9--9--9---7-7-7--5-5-5--5-5-5-----5-5-----
B|-s12-12-12--10-10-10--9-9-9--7-7-7--5-5-5-----5-5-----
G|-------------------------------------------7b-----7b--
D|------------------------------------------------------
A|------------------------------------------------------
E|------------------------------------------------------


Well it goes from St. Louis, down to Missouri
Oklahoma city looks oh so pretty
You?S?l see Amarillo and Gallup, New Mexico
Flagstaff, Arizona don't forget Winona
Kingsman, Barstaw, San Bernadino

Would you get hip to this kindly trip
And go take that California trip
Get your kicks on Route 66
Get your kicks on Route 66
Get your kicks on Route 66

  Final                                 A
e|--------------------------------------5---
B|--8----8--8--8--8--8--8----8----------5---
G|--7b/--7/-7/-7/-7/-7/-7/---7ba-p5-----6---
D|----------------------------------7---7---
A|--------------------------------------7---
E|--------------------------------------5---

            
            
Suggest correction
Creating personal tab
Creating personal tab
You can edit any tab online and save it as your Personal.

You can edit, replace or remove any tab part or add personal notes – all changes will be seen only by you.

Personal tabs can be accessed anytime from any device, even offline.
Learn more »
Give kudos to tab author, rate the tab!
1 2 3 4 5
comments
print report bad tab
guest
Wanna post a correction for this tab? Suggest correction