Oops, an error
Loading. Please wait.

Tornillo Eterno tab

52 views 1 this week
no commentswrite comment
1 2 3 4 5
3 more votes to show rating
add to favorites
×
Save as Personal and add changes to this tab that will be seen only by you. Learn more ›
×
You can save this tab as Personal to edit and correct it or add notes. All changes will be seen only by you. Learn more »
launch autoscroll
font size
0
reset
how to read this tab
guitar tuner
edit
Autoscroll
slow
fast
+/-
esc
set tempo
stop
TORNILLO ETERNO-VIEJAS LOCAS

INTRO
(CON SLIDE)


  E     A    B      E                  A   B      E
e|-------------------------------------------------------------
B|-----------------------------------------------------12------
G|-----------s8------s13--12s13-12s13--s6--s8-------s13---------
D|-------------------------------------------------------------
A|-------------------------------------------------------------
E|-------------------------------------------------------------

                     A   B       E       A     F#m    B
e|-------------------------------------------------------------
B|------------------------------------12s5---5s7------s12------
G|12s13--9--s9-9-8-7-6---6s8-----s13---------------------------
D|-------------------------------------------------------------
A|-------------------------------------------------------------
E|-------------------------------------------------------------

   E
e|------------------
B|------------------
G|s13-12s13-12s13---
D|s13-12s13-12s13---
A|------------------
E|------------------


  Ya es muy tarde, mi aliento se apaga
e|-------------------------------------------------------------
B|-------------------------------------------------------------
G|-s6------------s8----------------s13---12s13-12s13-----------
D|-------------------------------------------------------------
A|-------------------------------------------------------------
E|-------------------------------------------------------------

  Mi cuerpo y alma es norte y sur
e|-------------------------------------------------------------
B|-----------------------------------s9s5----------------------
G|-s6------------s8-------------s9-----------------------------
D|-------------------------------------------------------------
A|-------------------------------------------------------------
E|-------------------------------------------------------------

  Y desde arriba veo tu cara
e|-------------------------------------------------------------
B|---------------------------12s5--5s7-----s12-----------------
G|-2-----------2s4-------s13-----------------------------------
D|-------------------------------------------------------------
A|-------------------------------------------------------------
E|-------------------------------------------------------------

  Que me llora y canta un Blues
e|-------------------------------------------------------------
B|-------------------------------------------------------------
G|---------------------------s13---12s13-12s13-----------------
D|-------------------------------------------------------------
A|-------------------------------------------------------------
E|-------------------------------------------------------------

  Solo una vuelta al tornillo eterno
e|-------------------------------------------------------------
B|-----------------------------------12------------------------
G|-2------------2s4---------------------11s13--9-9-------------
D|-------------------------------------------------------------
A|-------------------------------------------------------------
E|-------------------------------------------------------------

 Fue un corto tiempo, mucho mas largo quiza
e|-------------------------------------------------------------
B|------------------------------------------12-----------------
G|-s6-----------------s8-----------------------11s13--9-9------
D|-------------------------------------------------------------
A|-------------------------------------------------------------
E|-------------------------------------------------------------

               Es un tren largo y salto un asiento
e|-------------------------------------------------------------
B|---------------------------------------------------12s5------
G|-s9-9-8-7-6--------------s6-6-6s8-------------8s9------------
D|-------------------------------------------------------------
A|-------------------------------------------------------------
E|-------------------------------------------------------------

      Cambio de forma y vuelvo a empezar
e|-------------------------------------------------------------
B|-7------------------12---------------------------------------
G|---------------------------------------s13-12s13-12s13-------
D|-------------------------------------------------------------
A|-------------------------------------------------------------
E|-------------------------------------------------------------

  Y vuelvo a empezar
e|-------------------------------------------------------------
B|---------------------5------------7---------12---------------
G|-----------------4s6---6s2----6s8-----12s13----12s13-9-------
D|-------------------------------------------------------------
A|-------------------------------------------------------------
E|-------------------------------------------------------------

e|-------------------------------------------------------------
B|----------------------------------15-------------------------
G|-s9-9-8-7-6--s6-6-6s8--8-6-8-8s9-----14s16-14-12s9-----------
D|-------------------------------------------------------------
A|-------------------------------------------------------------
E|-------------------------------------------------------------

e|-------------------------------------------------------------
B|-----5-----------7-------------12--12s5-5s7-7---12-----------
G|-4s6---6s2---6s8---8s4---12s13---------------------s13-------
D|---------------------------------------------------s13-------
A|-------------------------------------------------------------
E|-------------------------------------------------------------


e|-------------
B|-------------
G|-12s13-12s13-
D|-12s13-12s13-
A|-------------
E|-------------

  Y desde arriba me da pena verme
e|-------------------------------------------------------------
B|-------------------------------------------------------------
G|-s6-----------s8-----------------12s13-12s13-----------------
D|-------------------------------------------------------------
A|-------------------------------------------------------------
E|-------------------------------------------------------------

  Toda una vida que ya no esta mas
e|-------------------------------------------------------------
B|-------------------------------------------------------------
G|-----------s8-4-4---------------12s13-9--12s13s9-------------
D|-------------------------------------------------------------
A|-------------------------------------------------------------
E|-------------------------------------------------------------

  Te quise mucho y no quisiera perderte
e|-------------------------------------------------------------
B|--------------------------------------12s5-------------------
G|-s2----------2s4------------------9--------------------------
D|-------------------------------------------------------------
A|-------------------------------------------------------------
E|-------------------------------------------------------------

  Me gustaria volverte a encontrar
e|-------------------------------------------------------------
B|-5s7------12-------------------------------------------------
G|----------------------------------s13--12s13-12s13-----------
D|-------------------------------------------------------------
A|-------------------------------------------------------------
E|-------------------------------------------------------------

  Y ahora creo que nada fue en vano
e|-------------------------------------------------------------
B|-------------------------------------12----------------------
G|-s6---------s8------------------s13-----11s13-9--------------
D|-------------------------------------------------------------
A|-------------------------------------------------------------
E|-------------------------------------------------------------

  Y lo importante es no pasarla tan mal
e|-------------------------------------------------------------
B|----------------------------------------12-------------------
G|-2------------s4------------------12s13----11s13-9-----------
D|-------------------------------------------------------------
A|-------------------------------------------------------------
E|-------------------------------------------------------------

  Hace las cosas como a vos te parece
e|-------------------------------------------------------------
B|------------------------------------12s5---------------------
G|-s6-----------s8---------------------------------------------
D|-------------------------------------------------------------
A|-------------------------------------------------------------
E|-------------------------------------------------------------

  Y al que no le gusta hermanito querido, que se vaya a cagar
e|-------------------------------------------------------------
B|-5s7---------------------------------12----------------------
G|-------------------------------------------------------------
D|-------------------------------------------------------------
A|-------------------------------------------------------------
E|-------------------------------------------------------------

                   que se vaya a cagaaar
e|-------------------------------------------------------------
B|---------------------------------5-----------7----------12---
G|-s13--12s13-12s13------------4s6---6s2---6s8------12s13------
D|-------------------------------------------------------------
A|-------------------------------------------------------------
E|-------------------------------------------------------------

e|-------------------------------------------------------------
B|-----12-12s15-12-10-7s9-5------5----------7------------------
G|-s13-----------------------4s6---6s2--6s8---8s4--------------
D|-------------------------------------------------------------
A|-------------------------------------------------------------
E|-------------------------------------------------------------

e|----------------------4--------------------------------------
B|-----12---------------------------------------------12s5-5s7-
G|-s13----13s9-9s7--2s4---7s9---s6--s6-6-6s8--8-6-8s9----------
D|-------------------------------------------------------------
A|-------------------------------------------------------------
E|-------------------------------------------------------------

e|-------
B|-s12---
G|-------
D|-------
A|-------
E|-------

            
            
Suggest correction
Creating personal tab
Creating personal tab
You can edit any tab online and save it as your Personal.

You can edit, replace or remove any tab part or add personal notes – all changes will be seen only by you.

Personal tabs can be accessed anytime from any device, even offline.
Learn more »
Give kudos to tab author, rate the tab!
1 2 3 4 5
comments
print report bad tab
guest
Wanna post a correction for this tab? Suggest correction