Oops, an error
Loading. Please wait.

Una Espina En El Ojo tab

version 1
version 1

Whole song

59 views 1 this week
no commentswrite comment
1 2 3 4 5
3 more votes to show rating
add to favorites
×
Save as Personal and add changes to this tab that will be seen only by you. Learn more ›
×
You can save this tab as Personal to edit and correct it or add notes. All changes will be seen only by you. Learn more »
launch autoscroll
font size
0
reset
how to read this tab
guitar tuner
edit
Autoscroll
slow
fast
+/-
esc
set tempo
stop
nota
 ^ : es levantar la cuerda
() : es estirar la cuerda hasta que lo indique el numero q esat dentro del parentesis
s  :  Slide


INTRO:   G5     A5     A#5    B5


C5
tengo una espina en el ojo
G5                 A5  A#5  B5
no me la puedo sacar
C5
tengo una espina en el ojo
G5                 B5  C5  C#5
no me la puedo sacar
        D5
cuatro días con la espina,si
                    G5  A5  A#  B5
no la he podido sacar


Tengo una espina en el ojo
y no me la puedo cerrar
tengo una espina en el ojo
y no me la puedo cerrar
cuando saque esta espina
                    A5            B5  C5  C#5
yo dormire hasta cansarme, van aver

******SOLO DE GUITARRA*******


3-5^5-3-5-3-5^-3-5(7)-----------------|--|3/5-3----------------------------
3-5^5-3-5-3-5^-3-5(7)-----------------|--|-----5---------------------------
-----------------------3-5(7)-3-3-5^3-|x2|---------3-5-3-3-3-5^5-3--3-5^5-3
--------------------3-5---------------|--|------3-5------------------------
--------------------------------------|--|---------------------------------
--------------------------------------|--|---------------------------------


--------------------------|--|-3/5-3---------------------------------------
--------------------------|--|-------5--5/10/5/11/5/12---12-10-------------
-5^5^5^5^5^5^5^5^-5^5p3-2-|X2|----------------------------------12(11)-----
------------------------2-|--|---------------------------------------------
--------------------------|--|---------------------------------------------
--------------------------|--|---------------------------------------------


Ya me esta molestando
la luz de la cuidad
ya me esta molestando
la luz de la cuidad
sino me saco esta espina
enloqueceré de verdad


Tengo una espina en el ojo
cuatro días sin cerrarlo
tengo una espina en el ojo
cuatro días sin cerrarlo
cuando me saque esta espina
                  A5          B5  C5  C#5
seré libre de verdad, van a ver

***********SOLO 2**********************

3-5^5-353-5^-3-5(7)----------------|--|3/5-3---------------------------------
3-5^5-353-5^-3-5(7)----------------|--|-----5-5/10/5/11/5/12--1212121212-10--
---------------------3-5(7)-3-3-5^3|X2|--------------------------------------
-------------------35--------------|--|--------------------------------------
-----------------------------------|--|--------------------------------------
-----------------------------------|--|--------------------------------------


10/12121212--10/12121212--10/12121212--10/12121212---------------------------
10/12121212--10/12121212--10/12121212--10/12121212---------------------------
--------------------------------------------------14-12--12-14-12-14-14^14-12
-------------------------------------------------------14--------------------
-----------------------------------------------------------------------------
-----------------------------------------------------------------------------


------------------------------------|---------------------------|-----------
12/14-12-15^(dejar sonar)15-14-12-12|---------------------------|-----------
------------------------------------|12/14-12--12-14^14-14-14-12|-10/12-10--
------------------------------------|--------14-----------------|---------12
------------------------------------|---------------------------|-----------
------------------------------------|---------------------------|-----------
------------------------------------|---------------------------|-----------


------------------------------|
------------------------------|
-5/10/5/11/5/12(dejar sonar)--|
------------------------------|
------------------------------|
------------------------------|

bueno aca esta....me costo pero salio... espero q le sirva... no es muy dificil
de sacar, escuchen el tema varias veces,... y le va a salir.. LOCO AGUANTE VIEJAS
ESLO +++ Y LA 25 RNR---y por supuesto el pity...un beso para mi hermana ,,q me
banco escuchando siempre este tema cuando no me salia  [ROMI]
cualquier duda hacerlo a federnr_la25@

            
            
Suggest correction
Creating personal tab
Creating personal tab
You can edit any tab online and save it as your Personal.

You can edit, replace or remove any tab part or add personal notes – all changes will be seen only by you.

Personal tabs can be accessed anytime from any device, even offline.
Learn more »
Give kudos to tab author, rate the tab!
1 2 3 4 5
comments
print report bad tab
guest
Wanna post a correction for this tab? Suggest correction