Oops, an error
Loading. Please wait.

Vuela La Avispa chords

27 views 1 this week
no commentswrite comment
1 2 3 4 5
3 more votes to show rating
add to favorites
×
Save as Personal and add changes to this tab that will be seen only by you. Learn more ›
×
You can save this tab as Personal to edit and correct it or add notes. All changes will be seen only by you. Learn more »
launch autoscroll
font size
0
reset
transpose
0
reset
simplify chords
display chords
guitar tuner
edit
Autoscroll
slow
fast
+/-
esc
set tempo
stop
Strumming
There is no strumming pattern for this song yet. and get +5 IQ
Casi todo el tema hace lo mismo que la intro

Intro:

   Mi 5(base)
e|----------------------------------
B|----------------------------------
G|----------------------------------
D|----------------------------------
A|----2-2----4-4----5-5---4-4----2-2
E|---0------------------------------

  A 5(base)
e|----------------------------------
B|----------------------------------
G|----------------------------------
D|----2-2----4-4----5-5---4-4----2-2
A|---0------------------------------
E|----------------------------------

Mi5(base)
La colmena no esta serca
y muchas leguas hay que viajar

La5(base)
la colmena no esta serca
               E5
no vas a llegar

B5
con el vuelo de una avispa
mucho mas facil sera

(hace lo mismo)
La colmena no esta serca
y si corres te vas a cansar
la colmena no esta serca
no vas a llegar
con el vuelo de una avispa
mucho mas facil sera...


Bueno creo ke asi es el tema sino mandenme un mail asi me corrigen :)
Mauri_ston79_bordolino@
nos vemos gente que sea rock and rolll

            
            
Suggest correction
Creating personal tab
Creating personal tab
You can edit any tab online and save it as your Personal.

You can edit, replace or remove any tab part or add personal notes – all changes will be seen only by you.

Personal tabs can be accessed anytime from any device, even offline.
Learn more »
Give kudos to tab author, rate the tab!
1 2 3 4 5
comments
print report bad tab
guest
Wanna post a correction for this tab? Suggest correction