Oops, an error
Loading. Please wait.

Envy tab

103 views 1 this week
no commentswrite comment
1 2 3 4 5
x 3
add to favorites
×
Save as Personal and add changes to this tab that will be seen only by you. Learn more ›
×
You can save this tab as Personal to edit and correct it or add notes. All changes will be seen only by you. Learn more »
launch autoscroll
font size
0
reset
how to read this tab
guitar tuner
edit
Autoscroll
slow
fast
+/-
esc
set tempo
stop
Author
Difficulty
                                          Artist - Vienna Circle
                                         ************************
                                               Song - Envy
                                              *************
                                          Album - Silouette Moon
                                         ************************
                                           Tabbed By - Ayreon77
                                          **********************



Piano Intro 
************

Bm   F#m   Em   D
Ohhh ohh   Ohhh Ohh
Bm   F#m   Em   D
Ohhh ohh   Ohhh Ohh

Bm
OOOOOOhhhhh


ACOUSTIC
*********
Bm   F#m   Em   D
Ohhh ohh   Ohhh Ohh
Bm   F#m   Em   D
Ohhh ohh   Ohhh Ohh


VERSE 1
********
    Bm    F#m        Em       D
I'm cold, alone, and bare and empty
     Bm       F#m     Em       D        Bm
It's fine for you who lives in tints of gold

     F#m   Em   D
Ohhh ohh   Ohhh Ohh
Bm   F#m   Em   D
Ohhh ohh   Ohhh Ohh


VERSE 2
********
   Bm     F#m   Em        D
And I too you enslaved by envy
Bm         F#m      Em      D       Bm
Besides to lose and find my eyes in gold.


     F#m   Em   D
Ohhh ohh   Ohhh Ohh
Bm   F#m   Em   D
Ohhh ohh   Ohhh Ohh

Bm   D 
 
CHORDS FOR SOLO
****************
Bm A G F#m X4

01:11
Distorted Guitar
SOLO
*****
[--rake--------10----|----------|---------------------------]
[-----12-10-12----12-|---p------|-----------------br-12---s-]
[---12---------------|-14-11----|-------11-14-14-14-----11\-]
[-12-----------------|-------14-|-12-14---------------------]
[--------------------|----------|---------------------------]
[--------------------|----------|---------------------------]

                                             b   br
[-b--pbr-------------------brp------|-14-17-17--17-14--br------------------]
[-17-17-15----------------17--15-17-|-----------------17-15--br------15-14-]
[----------16-------16-19-----------|-----------------------19----16-------]
[-------------16-19-----------------|--------------------------17----------]
[-----------------------------------|--------------------------------------]
[-----------------------------------|--------------------------------------]

01:27
[------------------b---------b----p------|rake------------]
[-12-14-15--14-15-15--15-17-17--17-15-17-|---15--12----14-]
[----------------------------------------|--X-------14----]
[----------------------------------------|-X--------------]
[----------------------------------------|----------------]
[----------------------------------------|----------------]


[----------------------------|---------------|---------Hold---------s------]
[-12----12-------------------|---br----------|------b--Bends-r--7--7\10-10-]
[----14----14-11----------11-|-7-7-4---4-7-4-|--s---7--7--7--7-------------]
[----------------14-12-14----|-------7-------|-7\9-------------------------]
[----------------------------|---------------|-----------------------------]
[----------------------------|---------------|-----------------------------]

01:43  Kinda Fast Bit
[------------------------|----s----b-9----|---------|------------]
[------h------------h--7-|---7\10-10---10-|---------|------------]
[--h--7-9--h----h--7-9---|-7--------------|-11-9-11-|-9----------]
[-7-9-----7-9--7-9-------|----------------|---------|---12-11-12-]
[------------------------|----------------|---------|------------]
[------------------------|----------------|---------|------------]


[--------------------------------------]
[--------------------------------------]
[---------------h--p-------------------]
[-11-12-11-12-11-12-11---------h-h--s--]
[----------------------14-12--7-8-9-\--]
[--------------------------------------]


Bm   F#m   Em   D
Ohhh ohh   Ohhh Ohh
Bm   F#m   Em   D
Ohhh ohh   Ohhh Ohh



VERSE 3
********
   Bm   F#m         Em       D
My skys removed and eyes are grounded
    Bm       F#m    Em     D       Bm
Its time for you to see my life so cold



     F#m   Em   D
Ohhh ohh   Ohhh Ohh
Bm   F#m   Em   D
Ohhh ohh   Ohhh Ohh


Bm D Bm


Nice Tune. Enjoy.......

http://www.viennacircle.co.uk/

            
            
Suggest correction
Creating personal tab
Creating personal tab
You can edit any tab online and save it as your Personal.

You can edit, replace or remove any tab part or add personal notes – all changes will be seen only by you.

Personal tabs can be accessed anytime from any device, even offline.
Learn more »
Give kudos to tab author, rate the tab!
1 2 3 4 5
comments
print report bad tab
guest
You may want to rate the tab now too:
select rating
Wanna post a correction for this tab? Suggest correction