Oops, an error
Loading. Please wait.

El Simio tab

43 views 1 this week
no commentswrite comment
1 2 3 4 5
3 more votes to show rating
add to favorites
×
Save as Personal and add changes to this tab that will be seen only by you. Learn more ›
×
You can save this tab as Personal to edit and correct it or add notes. All changes will be seen only by you. Learn more »
launch autoscroll
font size
0
reset
how to read this tab
guitar tuner
edit
Autoscroll
slow
fast
+/-
esc
set tempo
stop
Esta rola me costó un huevo sacarla muchá, yo
creo que nadie mas la ha logrado sacar así que
aquí esta para el cuate que la estaba pidiendo
y para todos los demás que les gusta... Solo me
falto el solo que estaba bien difícil!!!

Intro:

Gtr 1.   (varias veces)

e------------------------------------------
B------------------------------------------
G------------------------------------------
D------------5-5-7-5-----------------------
A-5-5-5-5-5-----------5-5-5-5-5-3-3-3-3----
E------------------------------------------

Gtr 2.

  C5
e----------
B----------
G-5--------
D-5--------
A-3--------
E-x--------

La segunda guitarra hace esto cada vez que la
primera guitarra empieza el riff. Después de
tocarlo lo dejás sonar hasta donde aguante.

Verso:

e------------------------
B------------------------
G------------------------
D------------------------
A-3-3-5-3-5-3-5-3-5-3-5--
E------------------------

e------------------------
B------------------------
G------------------------
D-----------------5-7-5--
A-3-3-5-3-5-3-5-3--------
E------------------------

El primer ?7? de esta parte solo
se toca una vez!

e------------------------
B------------------------
G-7-5-5-7-5-7-5-7-5-7-5-7
D------------------------
A------------------------
E------------------------

A5         G5          D5
Que sentido hay en la oscuridad,
A5               G5        D5
Si no encuentras nada que puedas tocar.

Intro:

Gtr 1.   (varias veces)

e------------------------------------------
B------------------------------------------
G------------------------------------------
D------------5-5-7-5-----------------------
A-5-5-5-5-5-----------5-5-5-5-5-3-3-3-3----
E------------------------------------------

Verso:

e------------------------
B------------------------
G------------------------
D------------------------
A-3-3-5-3-5-3-5-3-5-3-5--
E------------------------

e------------------------
B------------------------
G------------------------
D-----------------5-7-5--
A-3-3-5-3-5-3-5-3--------
E------------------------

El primer ?7? de esta parte solo
se toca una vez!

e------------------------
B------------------------
G-7-5-5-7-5-7-5-7-5-7-5-7
D------------------------
A------------------------
E------------------------

A5            G5           D5
Y aquellas migas de pan que caen del hocico,
A5        G5            D5
No conocerán mas lengua que la tierra,
A5            G5       D5
Corre y viene aturdida la apatía,
A5     G5     D5
Ya no aguanto más...

Pre-Solo?

Primero el bajo hace algo parecido y
después entra la guitarra haciendo esto:

e--------------
B--------------
G--------------   (varias veces)
D--------------
A-3--5--3--5---
E--------------

e--------------
B--------------
G--------------   (varias veces)
D--------------
A-3--5--3--5~--
E--------------

Cuando entra la segunda guitarra,
empieza a hacer esto:

e--------------
B--------------
G-5h7p5--------   (varias veces)
D--------7-5---
A--------------
E--------------

e------------------------------------------------
B------------------3---------5---------6---------
G--------5---------------------------------------
D------------------------------------------------
A-3-5-3-----3-5-3-----3-5-3-----3-5-3------------
E------------------------------------------------

Después empieza el solo pero ese no lo pude sacar,
Se los debo muchá, otro día se los paso si lo logro
sacar...

Outro: (igual al intro)

Gtr 1.

e------------------------------------------
B------------------------------------------
G------------------------------------------
D------------5-5-7-5-----------------------
A-5-5-5-5-5-----------5-5-5-5-5-3-3-3-3----
E------------------------------------------

En el intro y en el outro la quinta cuerda se debe
tocar muy suave y casi no se oye...

Les pongo la letra entera para que no lloren:

En un plato de carne solo cabe el delirio,
Aquella fuente luminosa no escupió el suplicio,
Que sentido hay en la oscuridad,
Si no encuentras nada que puedas tocar.

Aquel simio sabio, enfurecido, enjaulado,
Como va a poder dudar de aquel que lo ha escuchado.

Y aquellas migas de pan que caen del hocico,
No conocerán mas lengua que la tierra,
Corre y viene aturdida la apatía,
Ya no aguanto mas...

Quien escuchará de lejos cuando caiga un árbol,
Quien entiende a aquella gaita sola que es tan triste,
Aquel vacío intransitado nadie lo conoce,
Como saber que hay tiempo si no existiera el cambio.

Aunque no parezca tan difícil a mi me costó un
huevo sacarla y nadie mas la tiene así que ahí esta ya...

            
            
Suggest correction
Creating personal tab
Creating personal tab
You can edit any tab online and save it as your Personal.

You can edit, replace or remove any tab part or add personal notes – all changes will be seen only by you.

Personal tabs can be accessed anytime from any device, even offline.
Learn more »
Give kudos to tab author, rate the tab!
1 2 3 4 5
comments
print report bad tab
guest
Wanna post a correction for this tab? Suggest correction