Oops, an error
Loading. Please wait.

Invisible tab

version 3
version 3

Whole song

35 views 1 this week
no commentswrite comment
1 2 3 4 5
3 more votes to show rating
add to favorites
×
Save as Personal and add changes to this tab that will be seen only by you. Learn more ›
×
You can save this tab as Personal to edit and correct it or add notes. All changes will be seen only by you. Learn more »
launch autoscroll
font size
0
reset
how to read this tab
guitar tuner
edit
Autoscroll
slow
fast
+/-
esc
set tempo
stop
otra buena rola d viernes
sin duda creo q s la mejor transcripcion
ahi les va a los amantes del rock chapin
saludos a mis cuates de sanarate

viva la garra chapina

Viernes Verde - Invisible

Intro: Se repite 6 veces
E||-------------------------|-------------------------||
B||-------------------------|-------------------------||
G||-------------------------|-------------------------||
D||--9-------9--9-----9-----|--9-------9-----9-----9--||
A||--7-------7--7-----7-----|--7-------7-----7-----7--||
E||-------------------------|-------------------------||

     Ya estoy pensando de nuevo
E||-------------------------|-------------------------||
B||-------------------------|-------------------------||
G||-------------------------|-------------------------||
D||--9-------9--9-----9-----|--9-------9-----9-----9--||
A||--7-------7--7-----7-----|--7-------7-----7-----7--||
E||-------------------------|-------------------------||
     En acariciarte los dedos
E||-------------------------|-------------------------||
B||-------------------------|-------------------------||
G||-------------------------|-------------------------||
D||--9-------9--9-----9-----|--9-------9-----9-----9--||
A||--7-------7--7-----7-----|--7-------7-----7-----7--||
E||-------------------------|-------------------------||

     No pienses que me arrepiento
E||----------------------|----------------------||
B||----------------------|----------------------||
G||----------------------|----------------------||
D||--5------5----5--5----|--7------7----7--7----||
A||--3------3----3--3----|--5------5----5--5----||
E||----------------------|----------------------||

E||-------------------------|-------------------------||
B||-------------------------|-------------------------||
G||-------------------------|-------------------------||
D||--9-------9--9-----9-----|--9-------9-----9-----9--||
A||--7-------7--7-----7-----|--7-------7-----7-----7--||
E||-------------------------|-------------------------||

     Aunque se que no te tengo
E||----------------------|----------------------||
B||----------------------|----------------------||
G||----------------------|----------------------||
D||--5------5----5--5----|--7------7----7--7----||
A||--3------3----3--3----|--5------5----5--5----||
E||----------------------|----------------------||

E||-------------------------|----------||
B||-------------------------|----------||
G||-------------------------|----------||
D||--9-------9--9-----9-----|--9-------||
A||--7-------7--7-----7-----|--7-------||
E||-------------------------|----------||

Esta parte es del bajo
G||-------------||
D||-------------||
A||--5/7--5/7---||
E||-------------||

Puente: Se repite 4 veces
E||-------------------------|-------------------------||
B||-------------------------|-------------------------||
G||-------------------------|-------------------------||
D||--9-------9--9-----9-----|--9-------9-----9-----9--||
A||--7-------7--7-----7-----|--7-------7-----7-----7--||
E||-------------------------|-------------------------||

     Ya no me voy a negar
E||-------------------------|-------------------------||
B||-------------------------|-------------------------||
G||-------------------------|-------------------------||
D||--9-------9--9-----9-----|--9-------9-----9-----9--||
A||--7-------7--7-----7-----|--7-------7-----7-----7--||
E||-------------------------|-------------------------||
     Que me interesa sangrar
E||-------------------------|-------------------------||
B||-------------------------|-------------------------||
G||-------------------------|-------------------------||
D||--9-------9--9-----9-----|--9-------9-----9-----9--||
A||--7-------7--7-----7-----|--7-------7-----7-----7--||
E||-------------------------|-------------------------||

     No me dejes en el olvido
E||----------------------|----------------------||
B||----------------------|----------------------||
G||----------------------|----------------------||
D||--5------5----5--5----|--7------7----7--7----||
A||--3------3----3--3----|--5------5----5--5----||
E||----------------------|----------------------||

E||-------------------------|-------------------------||
B||-------------------------|-------------------------||
G||-------------------------|-------------------------||
D||--9-------9--9-----9-----|--9-------9-----9-----9--||
A||--7-------7--7-----7-----|--7-------7-----7-----7--||
E||-------------------------|-------------------------||

     No quiero estar tan vacío
E||----------------------|----------------------||
B||----------------------|----------------------||
G||----------------------|----------------------||
D||--5------5----5--5----|--7------7----7--7----||
A||--3------3----3--3----|--5------5----5--5----||
E||----------------------|----------------------||
                                 (Apagados)
E||-------------------------|--------------------------||
B||-------------------------|--------------------------||
G||-------------------------|--------------------------||
D||--9-------9--9-----9-----|--9--9--9--9--9--9--9--9--||
A||--7-------7--7-----7-----|--7--7--7--7--7--7--7--7--||
E||-------------------------|--------------------------||

Coro:
    Siento que no estoy           que ya no me ves
E||----------------------------|----------------------------||
B||----------------------------|----------------------------||
G||----------------------------|----------------------------||
D||--9------9-----9-----10-----|--9------9-----9-----10-----||
A||--7------7-----7------8-----|--7------7-----7------8-----||
E||----------------------------|----------------------------||
    Que soy invisible
E||----------------------------|------------------------||
B||----------------------------|------------------------||
G||----------------------------|------------------------||
D||--9------9-----9-----10-----|--9----7----------------||
A||--7------7-----7------8-----|------------9--8--7-----||
E||----------------------------|------------------------||

    Esta vez te vas               ya no volves
E||----------------------------|----------------------------||
B||----------------------------|----------------------------||
G||----------------------------|----------------------------||
D||--9------9-----9-----10-----|--9------9-----9-----10-----||
A||--7------7-----7------8-----|--7------7-----7------8-----||
E||----------------------------|----------------------------||
    Soy invisible
E||----------------------------|------------------------||
B||----------------------------|------------------------||
G||----------------------------|------------------------||
D||--9------9-----9-----10-----|--9----7----------------||
A||--7------7-----7------8-----|------------9--8--7-----||
E||----------------------------|------------------------||

Puente: (se repite 5 veces)
E||-------------------------------|-------------------------------||
B||-------------------------------|-------------------------------||
G||-------------------------------|-------------------------------||
D||-------------------------------|-------------------------------||
A||--8s-7--------8s-7-8s-7--------|--8s-7--------8s-7-8s-7--------||
E||-------8s-7-------------8s-7---|-------8s-7-------------8s-7---||

     El miedo es lo que me aterra
E||-------------------------------|-------------------------------||
B||-------------------------------|-------------------------------||
G||-------------------------------|-------------------------------||
D||-------------------------------|-------------------------------||
A||--8s-7--------8s-7-8s-7--------|--8s-7--------8s-7-8s-7--------||
E||-------8s-7-------------8s-7---|-------8s-7-------------8s-7---||
     Dentro de mí hay una guerra
E||-------------------------------|-------------------------------||
B||-------------------------------|-------------------------------||
G||-------------------------------|-------------------------------||
D||-------------------------------|-------------------------------||
A||--8s-7--------8s-7-8s-7--------|--8s-7--------8s-7-8s-7--------||
E||-------8s-7-------------8s-7---|-------8s-7-------------8s-7---||

     Ya me da igual si la pierdo
E||----------------------|----------------------||
B||----------------------|----------------------||
G||----------------------|----------------------||
D||--5------5----5--5----|--7------7----7--7----||
A||--3------3----3--3----|--5------5----5--5----||
E||----------------------|----------------------||

E||-------------------------------|-------------------------------||
B||-------------------------------|-------------------------------||
G||-------------------------------|-------------------------------||
D||-------------------------------|-------------------------------||
A||--8s-7--------8s-7-8s-7--------|--8s-7--------8s-7-8s-7--------||
E||-------8s-7-------------8s-7---|-------8s-7-------------8s-7---||

    Creo que desaparezco
E||----------------------|----------------------||
B||----------------------|----------------------||
G||----------------------|----------------------||
D||--5------5----5--5----|--7------7----7--7----||
A||--3------3----3--3----|--5------5----5--5----||
E||----------------------|----------------------||
                                    (Apagados)
E||-------------------------------|--------------------------||
B||-------------------------------|--------------------------||
G||-------------------------------|--------------------------||
D||-------------------------------|--9--9--9--9--9--9--9--9--||
A||--8s-7--------8s-7-8s-7--------|--7--7--7--7--7--7--7--7--||
E||-------8s-7-------------8s-7---|--------------------------||

Coro:
    Siento que no estoy           que ya no me ves
E||----------------------------|----------------------------||
B||----------------------------|----------------------------||
G||----------------------------|----------------------------||
D||--9------9-----9-----10-----|--9------9-----9-----10-----||
A||--7------7-----7------8-----|--7------7-----7------8-----||
E||----------------------------|----------------------------||
    Que soy invisible
E||----------------------------|------------------------||
B||----------------------------|------------------------||
G||----------------------------|------------------------||
D||--9------9-----9-----10-----|--9----7----------------||
A||--7------7-----7------8-----|------------9--8--7-----||
E||----------------------------|------------------------||

    Esta vez te vas               ya no volves
E||----------------------------|----------------------------||
B||----------------------------|----------------------------||
G||----------------------------|----------------------------||
D||--9------9-----9-----10-----|--9------9-----9-----10-----||
A||--7------7-----7------8-----|--7------7-----7------8-----||
E||----------------------------|----------------------------||
    Soy invisible
E||----------------------------|------------------------||
B||----------------------------|------------------------||
G||----------------------------|------------------------||
D||--9------9-----9-----10-----|--9----7----------------||
A||--7------7-----7------8-----|------------9--8--7-----||
E||----------------------------|------------------------||

Esto es puente del bajo (se repite dos veces)
G||-----9-----9-----9-----9--|-----9-----9-----9-----9--|
D||--------------------------|--------------------------|
A||--------------------------|--------------------------|
E||--0-----0-----0-----0-----|--0-----0-----0-----0-----|

G||-----7-----7-----7-----7--|-----5--------4-----4-----||
D||--------------------------|--------------------------||
A||--------------------------|--------------------------||
E||--0-----------------------|--0--------0--------------||

(esta es la tablatura del bajo)
     Hay un lugar
G||-----9-----9-----9-----9--|-----9-----9-----9-----9--|
D||--------------------------|--------------------------|
A||--------------------------|--------------------------|
E||--0-----0-----0-----0-----|--0-----0-----0-----0-----|
     Del que no te puedo habla
G||-----7-----7-----7-----7--|-----5--------4-----4-----||
D||--------------------------|--------------------------||
A||--------------------------|--------------------------||
E||--0-----------------------|--0--------0--------------||
     Si me das la espalda
G||-----9-----9-----9-----9--|-----9-----9-----9-----9--|
D||--------------------------|--------------------------|
A||--------------------------|--------------------------|
E||--0-----0-----0-----0-----|--0-----0-----0-----0-----|
     No te puedo rescatar
G||-----7-----7-----7-----7--|-----5--------4-----4-----||
D||--------------------------|--------------------------||
A||--------------------------|--------------------------||
E||--0-----------------------|--0--------0--------------||

(En esta parte comienza la guitarra con quintas)
     E5                      E5
     De ahí
G||-----9-----9-----9-----9--|-----9-----9-----9-----9--|
D||--------------------------|--------------------------|
A||--------------------------|--------------------------|
E||--0-----0-----0-----0-----|--0-----0-----0-----0-----|
    D5  C5 B5
    Huu hoo
G||-----7-----7-----7-----7--|-----5--------4-----4-----||
D||--------------------------|--------------------------||
A||--------------------------|--------------------------||
E||--0-----------------------|--0--------0--------------||
     E5                      E5
     De ahí
G||-----9-----9-----9-----9--|-----9-----9-----9-----9--|
D||--------------------------|--------------------------|
A||--------------------------|--------------------------|
E||--0-----0-----0-----0-----|--0-----0-----0-----0-----|
   D5  C5 B5
   Huu hoo
G||-----7-----7-----7-----7--|-----5--------4-----4-----||
D||--------------------------|--------------------------||
A||--------------------------|--------------------------||
E||--0-----------------------|--0--------0--------------||
     E5                      E5
     Lo que yo soy
G||-----9-----9-----9-----9--|-----9-----9-----9-----9--|
D||--------------------------|--------------------------|
A||--------------------------|--------------------------|
E||--0-----0-----0-----0-----|--0-----0-----0-----0-----|
    D5  C5 B5
    Te hace falta
G||-----7-----7-----7-----7--|-----5--------4-----4-----||
D||--------------------------|--------------------------||
A||--------------------------|--------------------------||
E||--0-----------------------|--0--------0--------------||
     E5                      E5
     Lo que yo doy
G||-----9-----9-----9-----9--|-----9-----9-----9-----9--|
D||--------------------------|--------------------------|
A||--------------------------|--------------------------|
E||--0-----0-----0-----0-----|--0-----0-----0-----0-----|
    D5  C5 B5
    Te hace falta
G||-----7-----7-----7-----7--|-----5--------4-----4-----||
D||--------------------------|--------------------------||
A||--------------------------|--------------------------||
E||--0-----------------------|--0--------0--------------||

Coro:
     E5                      E5
     Siento que no estoy que ya no me ves
G||-----9-----9-----9-----9--|-----9-----9-----9-----9--|
D||--------------------------|--------------------------|
A||--------------------------|--------------------------|
E||--0-----0-----0-----0-----|--0-----0-----0-----0-----|
    D5  C5 B5
    Soy invisible
G||-----7-----7-----7-----7--|-----5--------4-----4-----||
D||--------------------------|--------------------------||
A||--------------------------|--------------------------||
E||--0-----------------------|--0--------0--------------||
     E5                      E5
     Esta vez te vas ya no volves
G||-----9-----9-----9-----9--|-----9-----9-----9-----9--|
D||--------------------------|--------------------------|
A||--------------------------|--------------------------|
E||--0-----0-----0-----0-----|--0-----0-----0-----0-----|
    D5  C5 B5
    Soy invisible
G||-----7-----7-----7-----7--|-----5--------4-----4-----||
D||--------------------------|--------------------------||
A||--------------------------|--------------------------||
E||--0-----------------------|--0--------0--------------||

    Siento que no estoy           que ya no me ves
E||----------------------------|----------------------------||
B||----------------------------|----------------------------||
G||----------------------------|----------------------------||
D||--9------9-----9-----10-----|--9------9-----9-----10-----||
A||--7------7-----7------8-----|--7------7-----7------8-----||
E||----------------------------|----------------------------||
    Que soy invisible
E||----------------------------|------------------------||
B||----------------------------|------------------------||
G||----------------------------|------------------------||
D||--9------9-----9-----10-----|--9----7----------------||
A||--7------7-----7------8-----|------------9--8--7-----||
E||----------------------------|------------------------||

    Esta vez te vas               ya no volves
E||----------------------------|----------------------------||
B||----------------------------|----------------------------||
G||----------------------------|----------------------------||
D||--9------9-----9-----10-----|--9------9-----9-----10-----||
A||--7------7-----7------8-----|--7------7-----7------8-----||
E||----------------------------|----------------------------||
    Soy invisible
E||----------------------------|------------------------||
B||----------------------------|------------------------||
G||----------------------------|------------------------||
D||--9------9-----9-----10-----|--9----7----------------||
A||--7------7-----7------8-----|------------9--8--7-----||
E||----------------------------|------------------------||
     Huu, huu                      hee, hee
E||-------------------------------|-------------------------------||
B||-------------------------------|-------------------------------||
G||-------------------------------|-------------------------------||
D||-------------------------------|-------------------------------||
A||--8s-7--------8s-7-8s-7--------|--8s-7--------8s-7-8s-7--------||
E||-------8s-7-------------8s-7---|-------8s-7-------------8s-7---||
     Huu, huu                       no, hoo
E||-------------------------------|-------------------------------||
B||-------------------------------|-------------------------------||
G||-------------------------------|-------------------------------||
D||-------------------------------|-------------------------------||
A||--8s-7--------8s-7-8s-7--------|--8s-7--------8s-7-8s-7--------||
E||-------8s-7-------------8s-7---|-------8s-7-------------8s-7---||
     Huu, huu                       hee, hee
E||-------------------------------|-------------------------------||
B||-------------------------------|-------------------------------||
G||-------------------------------|-------------------------------||
D||-------------------------------|-------------------------------||
A||--8s-7--------8s-7-8s-7--------|--8s-7--------8s-7-8s-7--------||
E||-------8s-7-------------8s-7---|-------8s-7-------------8s-7---||
     Huu, huu                       no, hoo
E||-------------------------------|-------------------------------||
B||-------------------------------|-------------------------------||
G||-------------------------------|-------------------------------||
D||-------------------------------|-------------------------------||
A||--8s-7--------8s-7-8s-7--------|--8s-7--------8s-7-8s-7--------||
E||-------8s-7-------------8s-7---|-------8s-7-------------8s-7---||
     Huu                            no
E||-------------------------------|-------------------------------||
B||-------------------------------|-------------------------------||
G||-------------------------------|-------------------------------||
D||-------------------------------|-------------------------------||
A||--8s-7--------8s-7-8s-7--------|--8s-7--------8s-7-8s-7--------||
E||-------8s-7-------------8s-7---|-------8s-7-------------8s-7---||
     Huu                            yeah
E||-------------------------------|-------------------------------||
B||-------------------------------|-------------------------------||
G||-------------------------------|-------------------------------||
D||-------------------------------|-------------------------------||
A||--8s-7--------8s-7-8s-7--------|--8s-7--------8s-7-8s-7--------||
E||-------8s-7-------------8s-7---|-------8s-7-------------8s-7---||
     Huu                             no
E||-------------------------------|-------------------------------||
B||-------------------------------|-------------------------------||
G||-------------------------------|-------------------------------||
D||-------------------------------|-------------------------------||
A||--8s-7--------8s-7-8s-7--------|--8s-7--------8s-7-8s-7--------||
E||-------8s-7-------------8s-7---|-------8s-7-------------8s-7---||
     Huu                            yeah
E||-------------------------------|-------------------------------||
B||-------------------------------|-------------------------------||
G||-------------------------------|-------------------------------||
D||-------------------------------|-------------------------------||
A||--8s-7--------8s-7-8s-7--------|--8s-7--------8s-7-8s-7--------||
E||-------8s-7-------------8s-7---|-------8s-7-------------8s-7---||

E||------------------------------|------------------------------||
B||------------------------------|------------------------------||
G||------------------------------|------------------------------||
D||--9-9-9-9----9-9-9-9-9-9------|--9-9-9-9----9-9-9-9-9-9------||
A||--7-7-7-7----7-7-7-7-7-7------|--7-7-7-7----7-7-7-7-7-7------||
E||------------------------------|------------------------------||

dudas y correcciones a mi correo
edoardorock@

            
            
Suggest correction
Creating personal tab
Creating personal tab
You can edit any tab online and save it as your Personal.

You can edit, replace or remove any tab part or add personal notes – all changes will be seen only by you.

Personal tabs can be accessed anytime from any device, even offline.
Learn more »
Give kudos to tab author, rate the tab!
1 2 3 4 5
comments
print report bad tab
guest
Wanna post a correction for this tab? Suggest correction