Oops, an error
Loading. Please wait.

Si Te Marchas tab

by Vikxie
43 views 1 this week
no commentswrite comment
1 2 3 4 5
3 more votes to show rating
add to favorites
×
Save as Personal and add changes to this tab that will be seen only by you. Learn more ›
×
You can save this tab as Personal to edit and correct it or add notes. All changes will be seen only by you. Learn more »
launch autoscroll
font size
0
reset
how to read this tab
guitar tuner
edit
Autoscroll
slow
fast
+/-
esc
set tempo
stop
E---------------------------------5------------------------------------
B-----4h7----5------2h3--5--------------3--2h3--2-----0----------------
G----------------------------------------------------------2-----------
D----------------------------------------------------------------------
A----------------------------------------------------------------------
E----------------------------------------------------------------------

E----------------------5------------5-----------------------5----------
B-----4h7----5-------------5h7-------------5h7------2h3----------------
G----------------------------------------------------------------------
D----------------------------------------------------------------------
A----------------------------------------------------------------------
E----------------------------------------------------------------------

G/B        CMAdd2nd
No hay manera de saber
G/B       CMAdd2nd                          E[----------5-----------]
donde se esconde la pequeña Raquel          B[-----2h5--------------]
G/B        CMAdd2nd
No deja rastro alguno para seguir
G/B        CMAdd2nd
solo un perfume que me hechiza.

E---------------------------------5-----------------------------
B-----4h7----5------2h3--5--------------3--2h3--2-----0---------
G----------------------------------------------------------2----
D---------------------------------------------------------------
A---------------------------------------------------------------
E---------------------------------------------------------------

E-----------------------5-----------7h9-----12------------------
B-----4h7----5-------------------------------------------5------
G---------------------------------------------------------------
D---------------------------------------------------------------
A---------------------------------------------------------------
E---------------------------------------------------------------


G/B        CMAdd2nd
Tu madre se ha empezado ya a preguntar
G/B         CMAdd2nd
por qué llegas tan tarde;             E[---5------------------5---]
G/B          CMAdd2nd                 B[------5---3h2---2h3-------]
Tu padre ya se ha puesto a indagar
G/B          CMAdd2nd
Sobre el chico tan raro con quien vas

F#m            D      F#m
Y por el barrio nadie sabe decirme
        E
donde estas.

A    E          F#m      D
Si te marchas de Madrid no te
         A       E       F#m             D
olvides de mi yo fui tu sombra en la pared
A      E         F#m          D
esas cosas que me das, que me diste
      A         E     F#m     D
y me daras me vuelven loco aun.
A      E         F#m       D          A
Si verte en television ya no te hace feliz
  E    F#m      D
vente conmigo por ahí
Bm                 A#m5
Solos los dos en el cielo de
D            Dm
Madrid  ...   o donde me lleves

B-----4h7----5------2h3--5------3--2h3--2---------0----------
G------------------------------------------------------2-----
D------------------------------------------------------------
A------------------------------------------------------------
E------------------------------------------------------------

E----------------------5------------5---------------------5--
B-----4h7----5-------------5h7----------5h7--------2h3-------
G------------------------------------------------------------
D------------------------------------------------------------
A------------------------------------------------------------
E------------------------------------------------------------


B/               CMAdd2nd
Nadie te puede controlar
B/                 CMAdd2nd
Solo tus pasiones saben donde vas.
F#m            D
Recuerdo cuando me contabas
F#m            D
historias sobre brujas con alas
F#m       D             F#m                    E
que se van a otro lugar y que nunca  vuelven.
A                    D
Y es que ser la niña buena no es normal...
F#m                    E
cuando eres un demonio que puede quemar

A    E          F#m      D
Si te marchas de Madrid no te
         A       E       F#m             D
olvides de mi yo fui tu sombra en la pared
A      E         F#m          D
esas cosas que me das, que me diste
      A         E     F#m     D
y me daras me vuelven loco aun.
A      E         F#m       D          A
Si verte en television ya no te hace feliz
  E    F#m      D
vente conmigo por ahí

Bm              D                Dm
Solos los dos en el cielo, sin pensar...

[F#m F#m ,  F#m F#m,  D D,  D D,  F#m F#m, F#m F#m,  E E E E E...]

A    E        F#m           D
Si te marchas de Madrid no te
           A       E        F#m          D
olvides de mi yo fui tu sombra en la pared
A     E          F#m              D
esas cosas que me das, que me diste
     A          E     F#m     D
y me daras me vuelven loco auuun.

A           E
Si corres, no esperas.
F#m          D
Si esperas, nunca llegas...
A         E              Dm
No llegues tarde esta vez
Bm      A#m5      D      Dm
a tu cita con el destino...

E---------------------------------5---------------------------------
B-----4h7----5------2h3--5--------------3--2h3--2------0------------
G----------------------------------------------------------2--------
D-------------------------------------------------------------------
A-------------------------------------------------------------------
E-------------------------------------------------------------------

E----------------------5----------5-------------------------5///----
B-----4h7----5-------------5h7-------5h7--------2h3-----------------
G-------------------------------------------------------------------
D-------------------------------------------------------------------
A-------------------------------------------------------------------
E-------------------------------------------------------------------


Bueno amigos de la cuerda... esta es mi version.
Es la primera que hago, asi que espero que le sea de ayuda a alguien aunque
lo dudo por ser mi primera transcripción.
¡Disfrutadlo si podeis!


Se la dedico a mi princesa, esa que me da la vida y que, a demas,
me enseñó a este artista (L)

            
            
Suggest correction
Creating personal tab
Creating personal tab
You can edit any tab online and save it as your Personal.

You can edit, replace or remove any tab part or add personal notes – all changes will be seen only by you.

Personal tabs can be accessed anytime from any device, even offline.
Learn more »
Give kudos to tab author, rate the tab!
1 2 3 4 5
comments
print report bad tab
guest
Wanna post a correction for this tab? Suggest correction