Oops, an error
Loading. Please wait.

Gypsy In Her Eyes tab

40 views 1 this week
no commentswrite comment
1 2 3 4 5
3 more votes to show rating
add to favorites
×
Save as Personal and add changes to this tab that will be seen only by you. Learn more ›
×
You can save this tab as Personal to edit and correct it or add notes. All changes will be seen only by you. Learn more »
launch autoscroll
font size
0
reset
how to read this tab
guitar tuner
edit
Autoscroll
slow
fast
+/-
esc
set tempo
stop
About this tab version
Personal fingerpicking arrangement. Standard tuning, no capo. Set the tempo at your own discretion. Was this info helpful? Yes No
Artist: Vinnie Vincent Invasion
Title: Gypsy In Her Eyes
Method: Fingerpicking

* This is a fingerpicking arrangement for a single vocal,
  so the composition is slightly different then the original song.

[Intro]
            C#m                        B        A
e|----------------------------|----------------------------|
B|-----------5----------------|----------------------------|
G|--------6-----6-----6-------|--------8--------6----------|
D|-----6-----------6-----6----|-----9-----9--------7-------|
A|--4-------------------------|-----------------------7----| x4
E|----------------------------|--7-----------5-------------|
             C                            D                  
e|----------------------------|-----------2----------------|
B|-----------1----------------|--------3----(3)----(3)-----|
G|--------0----(0)----(0)-----|-----2-----------2------2---|
D|-----2-----------2------2---|--0-------------------------|
A|--3-------------------------|----------------------------|
E|----------------------------|----------------------------|

[Verse 1]
             A                                     B 
e|----------------------------|----------------------------|
B|-----------2----------------|----------------------------|
G|--------2-----2-----2-------|--------2-------------------|
D|-----2-----------2-----2----|-----2-----2--------9-------|
A|--0-------------------------|--0--------------9-----9----|
E|----------------------------|--------------7-------------|
             G#m7                     C#m          B        
e|----------------------------|----------------------------|
B|-----------(4)--------------|----------------------------|
G|---------------4-----4------|--------6-------------------|
D|--------4---------4-----4---|-----6-----6--------9-------|
A|-----6----------------------|--4--------------9-----9----|
E|--4-------------------------|--------------7-------------|
            F#m                           B                  
e|----------------------------|----------------------------|
B|----------------------------|----------------------------|
G|-----------2----------------|-----------8----------------|
D|--------4-----4-----4-------|--------9-----9-----9-------|
A|-----4-----------4-----4----|-----9-----------9-----9----|
E|--2-------------------------|--7-------------------------|
             E                            G#m7              
e|----------------------------|----------------------------|
B|-----------0----------------|-----------(4)--------------|
G|--------1-----1-----1-------|---------------4-----4------|
D|-----2-----------2-----2----|--------4---------4-----4---|
A|--2-------------------------|-----6----------------------|
E|----------------------------|--4-------------------------|
             A                            B                 
e|----------------------------|----------------------------|
B|-----------2----------------|----------------------------|
G|--------2-----2-----2-------|-----------8----------------|
D|-----2-----------2-----2----|--------9-----9-----9-------|
A|--0-------------------------|-----9-----------9-----9----|
E|----------------------------|--7-------------------------|
             G#m7                     C#m          B
e|----------------------------|----------------------------|
B|-----------(4)--------------|----------------------------|
G|---------------4-----4------|--------6-------------------|
D|--------4---------4-----4---|-----6-----6--------9-------|
A|-----6----------------------|--4--------------9-----9----|
E|--4-------------------------|--------------7-------------|
            F#m                           B                  
e|----------------------------|----------------------------|
B|----------------------------|----------------------------|
G|-----------2----------------|-----------8----------------|
D|--------4-----4-----4-------|--------9-----9-----9-------|
A|-----4-----------4-----4----|-----9-----------9-----9----|
E|--2-------------------------|--7-------------------------|
             C                            D                  
e|----------------------------|-----------2----------------|
B|-----------1----------------|--------3----(3)----(3)-----|
G|--------0----(0)----(0)-----|-----2-----------2------2---|
D|-----2-----------2------2---|--0-------------------------|
A|--3-------------------------|----------------------------|
E|----------------------------|----------------------------|

[Chorus]
    E                                 F#m7         B   
e|----------------------------|----------------------------|
B|--0--------0----------------|----------------------------|
G|--1-----------1-----1-------|--------2-------------------|
D|--2--------------2-----2----|-----2-----2--------9-------|
A|--2----(2)------------------|-----------------9-----9----|
E|--0-------------------------|--2-----------7-------------|
       G#m7        C#m              A           B
e|----------------------------|----------------------------|
B|--------------------5-------|----------------------------|
G|-----------------6-----6----|--------6-----------8-------|
D|--------4-----6-------------|-----7-----------9-----9----|
A|-----6-----4----------------|--------------9-------------|
E|--4-------------------------|--5--------7----------------|
       C#m         B                A              B
e|----------------------------|----------------------------|
B|----------------------------|----------------------------|
G|--------6-----------8-------|--------6-----------8-------|
D|-----6-----------9-----9----|-----7-----------9-----9----|
A|--4-----------9-------------|--------------9-------------|
E|-----------7----------------|--5--------7----------------|
             C                            D                  
e|----------------------------|-----------2----------------|
B|-----------1----------------|--------3----(3)----(3)-----|
G|--------0----(0)----(0)-----|-----2-----------2------2---|
D|-----2-----------2------2---|--0-------------------------|
A|--3-------------------------|----------------------------|
E|----------------------------|----------------------------|

[Verse 2]
             A                                     B 
e|----------------------------|----------------------------|
B|-----------2----------------|----------------------------|
G|--------2-----2-----2-------|--------2-------------------|
D|-----2-----------2-----2----|-----2-----2--------9-------|
A|--0-------------------------|--0--------------9-----9----|
E|----------------------------|--------------7-------------|
             G#m7                     C#m          B        
e|----------------------------|----------------------------|
B|-----------(4)--------------|----------------------------|
G|---------------4-----4------|--------6-------------------|
D|--------4---------4-----4---|-----6-----6--------9-------|
A|-----6----------------------|--4--------------9-----9----|
E|--4-------------------------|--------------7-------------|
            F#m                           B                  
e|----------------------------|----------------------------|
B|----------------------------|----------------------------|
G|-----------2----------------|-----------8----------------|
D|--------4-----4-----4-------|--------9-----9-----9-------|
A|-----4-----------4-----4----|-----9-----------9-----9----|
E|--2-------------------------|--7-------------------------|
             E                            G#m7              
e|----------------------------|----------------------------|
B|-----------0----------------|-----------(4)--------------|
G|--------1-----1-----1-------|---------------4-----4------|
D|-----2-----------2-----2----|--------4---------4-----4---|
A|--2-------------------------|-----6----------------------|
E|----------------------------|--4-------------------------|
             A                            B                 
e|----------------------------|----------------------------|
B|-----------2----------------|----------------------------|
G|--------2-----2-----2-------|-----------8----------------|
D|-----2-----------2-----2----|--------9-----9-----9-------|
A|--0-------------------------|-----9-----------9-----9----|
E|----------------------------|--7-------------------------|
             G#m7                     C#m          B
e|----------------------------|----------------------------|
B|-----------(4)--------------|----------------------------|
G|---------------4-----4------|--------6-------------------|
D|--------4---------4-----4---|-----6-----6--------9-------|
A|-----6----------------------|--4--------------9-----9----|
E|--4-------------------------|--------------7-------------|
            F#m                           B                  
e|----------------------------|----------------------------|
B|----------------------------|----------------------------|
G|-----------2----------------|-----------8----------------|
D|--------4-----4-----4-------|--------9-----9-----9-------|
A|-----4-----------4-----4----|-----9-----------9-----9----|
E|--2-------------------------|--7-------------------------|
             C                            D                  
e|----------------------------|-----------2----------------|
B|-----------1----------------|--------3----(3)----(3)-----|
G|--------0----(0)----(0)-----|-----2-----------2------2---|
D|-----2-----------2------2---|--0-------------------------|
A|--3-------------------------|----------------------------|
E|----------------------------|----------------------------|

[Chorus]
    E                                 F#m7         B   
e|----------------------------|----------------------------||
B|--0--------0----------------|----------------------------||
G|--1-----------1-----1-------|--------2-------------------||
D|--2--------------2-----2----|-----2-----2--------9-------||
A|--2----(2)------------------|-----------------9-----9----||
E|--0-------------------------|--2-----------7-------------||
       G#m7        C#m              A           B           |
e|----------------------------|----------------------------||
B|--------------------5-------|----------------------------||
G|-----------------6-----6----|--------6-----------8-------||
D|--------4-----6-------------|-----7-----------9-----9----||
A|-----6-----4----------------|--------------9-------------||
E|--4-------------------------|--5--------7----------------||
       C#m         B                A           B           | x2
e|----------------------------|----------------------------||
B|----------------------------|----------------------------||
G|--------6-----------8-------|--------6-----------8-------||
D|-----6-----------9-----9----|-----7-----------9-----9----||
A|--4-----------9-------------|--------------9-------------||
E|-----------7----------------|--5--------7----------------||
             C                            D                 |
e|----------------------------|-----------2----------------||
B|-----------1----------------|--------3----(3)----(3)-----||
G|--------0----(0)----(0)-----|-----2-----------2------2---||
D|-----2-----------2------2---|--0-------------------------||
A|--3-------------------------|----------------------------||
E|----------------------------|----------------------------||

[Bridge]
             C                            D                  
e|----------------------------|-----------2----------------|
B|-----------1----------------|--------3----(3)----(3)-----|
G|--------0----(0)----(0)-----|-----2-----------2------2---|
D|-----2-----------2------2---|--0-------------------------|
A|--3-------------------------|----------------------------|
E|----------------------------|----------------------------|
             Bm                            Em                 
e|----------------------------|----------------------------|
B|-----------3----------------|-----------0----------------|
G|--------4-----4-----4-------|--------0-----0-----0-------|
D|-----4-----------4-----4----|-----2-----------2-----2----|
A|--2-------------------------|--2-------------------------|
E|----------------------------|----------------------------|
             Am                           D                  
e|----------------------------|-----------2----------------|
B|-----------1----------------|--------3----(3)----(3)-----|
G|--------2-----2-----2-------|-----2-----------2------2---|
D|-----2-----------2-----2----|--0-------------------------|
A|--0-------------------------|----------------------------|
E|----------------------------|----------------------------|
             G                            B                  
e|----------------------------|----------------------------|
B|-----------3----------------|----------------------------|
G|--------------0-----0-------|-----------8----------------|
D|--------0--------0-----0----|--------9-----9-----9-------|
A|-----2----------------------|-----9-----------9-----9----|
E|--3-------------------------|--7-------------------------|
             C                            D                  
e|----------------------------|-----------2----------------|
B|-----------1----------------|--------3----(3)----(3)-----|
G|--------0----(0)----(0)-----|-----2-----------2------2---|
D|-----2-----------2------2---|--0-------------------------|
A|--3-------------------------|----------------------------|
E|----------------------------|----------------------------|
             Bm                            Em                 
e|----------------------------|----------------------------|
B|-----------3----------------|-----------0----------------|
G|--------4-----4-----4-------|--------0-----0-----0-------|
D|-----4-----------4-----4----|-----2-----------2-----2----|
A|--2-------------------------|--2-------------------------|
E|----------------------------|----------------------------|
             Am                           D                  
e|----------------------------|-----------2----------------|
B|-----------1----------------|--------3----(3)----(3)-----|
G|--------2-----2-----2-------|-----2-----------2------2---|
D|-----2-----------2-----2----|--0-------------------------|
A|--0-------------------------|----------------------------|
E|----------------------------|----------------------------|
             G                            B                  
e|----------------------------|----------------------------|
B|-----------3----------------|----------------------------|
G|--------------0-----0-------|-----------8----------------|
D|--------0--------0-----0----|--------9-----9-----9-------|
A|-----2----------------------|-----9-----------9-----9----|
E|--3-------------------------|--7-------------------------|

[Chorus]
    E                                 F#m7         B   
e|----------------------------|----------------------------||
B|--0--------0----------------|----------------------------||
G|--1-----------1-----1-------|--------2-------------------||
D|--2--------------2-----2----|-----2-----2--------9-------||
A|--2----(2)------------------|-----------------9-----9----||
E|--0-------------------------|--2-----------7-------------||
       G#m7        C#m              A           B           |
e|----------------------------|----------------------------||
B|--------------------5-------|----------------------------||
G|-----------------6-----6----|--------6-----------8-------||
D|--------4-----6-------------|-----7-----------9-----9----||
A|-----6-----4----------------|--------------9-------------||
E|--4-------------------------|--5--------7----------------||
       C#m         B                A           B           | x2
e|----------------------------|----------------------------||
B|----------------------------|----------------------------||
G|--------6-----------8-------|--------6-----------8-------||
D|-----6-----------9-----9----|-----7-----------9-----9----||
A|--4-----------9-------------|--------------9-------------||
E|-----------7----------------|--5--------7----------------||
             C                            D                 |
e|----------------------------|-----------2----------------||
B|-----------1----------------|--------3----(3)----(3)-----||
G|--------0----(0)----(0)-----|-----2-----------2------2---||
D|-----2-----------2------2---|--0-------------------------||
A|--3-------------------------|----------------------------||
E|----------------------------|----------------------------||

[Outro]
            C#m                        B        A
e|----------------------------|----------------------------|
B|-----------5----------------|----------------------------|
G|--------6-----6-----6-------|--------8--------6----------|
D|-----6-----------6-----6----|-----9-----9--------7-------|
A|--4-------------------------|-----------------------7----| x2
E|----------------------------|--7-----------5-------------|


************************

| () - Ghost note

************************

            
            
Suggest correction
Creating personal tab
Creating personal tab
You can edit any tab online and save it as your Personal.

You can edit, replace or remove any tab part or add personal notes – all changes will be seen only by you.

Personal tabs can be accessed anytime from any device, even offline.
Learn more »
Give kudos to tab author, rate the tab!
1 2 3 4 5
comments
print report bad tab
guest
You may want to rate the tab now too:
select rating
Wanna post a correction for this tab? Suggest correction