Oops, an error
Loading. Please wait.

Queremos Ver tab

64 views 1 this week
no commentswrite comment
1 2 3 4 5
3 more votes to show rating
add to favorites
×
Save as Personal and add changes to this tab that will be seen only by you. Learn more ›
×
You can save this tab as Personal to edit and correct it or add notes. All changes will be seen only by you. Learn more »
launch autoscroll
font size
0
reset
how to read this tab
guitar tuner
edit
Autoscroll
slow
fast
+/-
esc
set tempo
stop
Intro:
//G D Em C//
E -3----3-5--3-5-7-8-7-5-5-3--3----3-5-3--5-7-8-5----0-3-0-3-|
B ----3--------------------------3-----------------3---------|
G -----------------------------------------------------------|
D -----------------------------------------------------------|
A -----------------------------------------------------------|
E -----------------------------------------------------------|

  G            D          Em
//Queremos a Cristo proclamar
              C     D    G
Como un estandarte levantar
             D           Em
Que toda la gente pueda ver
                C   D      G
Que el es el camino al Cielo//

=Coro=
G            D              Em
//Queremos ver, queremos ver
       C       D    G
A Jesucristo como Rey//

Puente:
//G D Em C//
E -3----3-5--3-5-7-8-7-5-5-3--3----3-5-3--5-7-8-5----0-3-0-3-|
B ----3--------------------------3-----------------3---------|
G -----------------------------------------------------------|
D -----------------------------------------------------------|
A -----------------------------------------------------------|
E -----------------------------------------------------------|

        D             Em
Paso a paso hacia el frente
        D       Em
Poco a poco a ganar
        D            Em
La oración las fortalezas
       C          D       D      D
Todas caen todas caen y caen y caen
         G
Y caen

Final:
//G D Em C//
E -3----3-5--3-5-7-8-7-5-5-3--3----3-5-3--5-7-8-5----0-3-0-3-|
B ----3--------------------------3-----------------3---------|
G -----------------------------------------------------------|
D -----------------------------------------------------------|
A -----------------------------------------------------------|
E -----------------------------------------------------------|

Dios les bendiga a todos esta canción la vi en la pagina de
Marco Barrientos pero cuando lo escuche me sono como de
Vino Nuevo Asi ke por eso se las pongo con algunas modificaciones
espero les sirva y sea de bendición y nuevamente
agradezco el esfuerzo y le mando saludos a el grupo de alanbanza
de Centro Cristiano Torre Fuerte de Pátzcuaro Michoacán.

            
            
Suggest correction
Creating personal tab
Creating personal tab
You can edit any tab online and save it as your Personal.

You can edit, replace or remove any tab part or add personal notes – all changes will be seen only by you.

Personal tabs can be accessed anytime from any device, even offline.
Learn more »
Give kudos to tab author, rate the tab!
1 2 3 4 5
comments
print report bad tab
guest
Wanna post a correction for this tab? Suggest correction