Oops, an error
Loading. Please wait.

Kill On Command tab

version 1
version 1

Whole song

Interactive

748 views 1 this week
no commentswrite comment
1 2 3 4 5
x 3
add to favorites
×
Save as Personal and add changes to this tab that will be seen only by you. Learn more ›
×
You can save this tab as Personal to edit and correct it or add notes. All changes will be seen only by you. Learn more »
launch autoscroll
font size
0
reset
how to read this tab
guitar tuner
edit
Autoscroll
slow
fast
+/-
esc
set tempo
stop
Author
.  - palm mute           /  - slide up to
\  - slide down to       ~  - vibrato
h  - hammer on           b  - Bend
p  - pull off            Suffixes for bend
t  - tap                 f  - full bend    h - half bend
ph - pinched harmonic    q  - quarter bend t - tap bend
*  - see comment         ^  - Hold bend    r release bend
x  - Staccato            ~  - vibrato bend
,  - slight palm mute    () - ghost note, sustained note
"  - tremolo note        tr - Trill

Tuning E A D G B E


Riff 1a
||-------------------------------------------|
||-------------------------------------------|
||-------------------------------------------|
||------------------------------10-9---------|
||---10-9tr10---10-9tr10---10-9------10-9-10-|
||-0----------0----------0-------------------|
   . .        . .        . .  .

 |---------------------------------------|
 |---------------------------------------|
 |---------------------------------------|
 |-----------------------2-----3-2-----3-|
 |---10-9tr10---10-9tr10---3-2-----3-2---|
 |-0----------0--------------------------|
   . .        . .        . . . . . . . .

 |-------------------------------------------|
 |-------------------------------------------|
 |-------------------------------------------|
 |------------------------------10-9---------|
 |---10-9tr10---10-9tr10---10-9------10-9-10-|
 |-0----------0----------0-------------------|
   . .        . .        . .  .

 |-------------------------------------------||
 |-------------------------------------------||
 |-------------------------------------------||
 |-------------------------------------------||
 |---10-9tr10---10-9\---2--------------------||
 |-0----------0---------0--------------------||
   . .        . .


Riff 1b
||-------------------------------------------|
||-------------------------------------------|
||-------------------------------------------|
||------------------------------10-9---------|
||---10-9tr10---10-9tr10---10-9------10-9-10-|
||-0----------0----------0-------------------|
   . .        . .        . .  .

 |---------------------------------------||
 |---------------------------------------||
 |---------------------------------------||
 |-----------------------2-----3-2-----3-||
 |---10-9tr10---10-9tr10---3-2-----3-2---||
 |-0----------0--------------------------||  x2
   . .        . .        . . . . . . . .


Riff 2
|-----------------------------------------------------------------|
|-----------------------------------------------------------------|
|-----------------------------------------------------------------|
|-----------------------------------------------------------------|
|-2-------8---7-5-2-------8---7-102-------8---7-5-3---3---3---3-5-|
|-0-0000006---5-3-0-0000006---5-8-0-0000006---5-3-1-0-1-0-1-0-1-3-|  x4
    ......          ......          ......          .   .   .


Riff 3
|-----------------------------------------------------------------|
|-----------------------------------------------------------------|
|-----------------------------------------------------------------|
|-----------------------------------------------------------------|
|-2-----------------------8---7-5-2---------8\7-----7\5-----5\3---|
|-0-00000000000000000000006---5-3-0-000000006\5---0-5\3---0-3\1---|  x2
    ......................          ........      .       .


Riff 2      x2
Riff 3      x2
Riff 2      x2


Riff 4a
|-----------------------------------------------------------------|
|-----------------------------------------------------------------|
|-----------------------------------------------------------------|
|-------------------------10-10-10--------------------------------|
|-7777555577778888777755558--8--8-7777555577778---7-----8-7-----8-|
|---------------------------------------------------8-7-----8-7---|  x2
  ........................        ............    . . . . . . . .


Riff 4b
||-----------------------------------------------------------------|
||-----------------------------------------------------------------|
||-----------------------------------------------------------------|
||-9---7---9---10--9---7---10-10-109---7---9---10------------------|
||-7---5---7---8---7---5---8--8--8-7---5---7---8---7-----8-7-----8-|
||---------------------------------------------------8-7-----8-7---|
                                                   . . . . . . . .

 |-----------------------------------------------------------------||
 |-----------------------------------------------------------------||
 |-----------------------------------------------------------------||
 |-9---7---9---10--9---7---10-10-109---7---9---10------------------||
 |-7---5---7---8---7---5---8--8--8-7---5---7---8---7-----8-7-----8-||
 |---------------------------------------------------8-7-----8-7---||  x1
                           .  .  .                 . . . . . . . .



Riff 2      x2 (Under solo)
Riff 3      x2
Riff 2      x2
Riff 3      x2
Riff 2      x2
Riff 4a     x1
Riff 4b     x1
Riff 1a     x1
Riff 1b     x1



|---------------|
|---------------|
|---------------|
|---------------|
|-2-------------|
|-0------3/15\3-|

Riff 5a
||------------------------------------------------------------------|
||------------------------------------------------------------------|
||------------------------------------------------------------------|
||-----------10--------------10--------------10------1010\9-9\7-7/9-|
||-----------8---------------8---------------8-------8-8-\7-7\5-5/7-|
||-0-0-0-0-0---0-0-0-0-0-0-0---0-0-0-0-0-0-0---0-0-0----------------|
   . . . . .   . . . . . . .   . . . . . . .   . . .

 |--------------------------------------------------------------------||
 |--------------------------------------------------------------------||
 |--------------------------------------------------------------------||
 |-----------10--------------10--------------10------1010/12-12\9-9---||
 |-----------8---------------8---------------8-------8-8-/10-10\7-7---||
 |-0-0-0-0-0---0-0-0-0-0-0-0---0-0-0-0-0-0-0---0-0-0------------------||  x2
   . . . . .   . . . . . . .   . . . . . . .   . . .


Riff 5b
||------------------------------------------------------------------|
||------------------------------------------------------------------|
||------------------------------------------------------------------|
||---------------------------------------------------1010\9-9\7-7/9-|
||---------------------------------------------------8-8\\7-7\5-5/7-|
||-0-0-0-0-0-0-0-0-0-0-0-0-0-0-0-0-0-0-0-0-0-0-0-0-0----------------|
   . . . . . . . . . . . . . . . . . . . . . . . . .

 |--------------------------------------------------------------------|
 |--------------------------------------------------------------------|
 |--------------------------------------------------------------------|
 |---------------------------------------------------1010\12-12\9-9---|
 |---------------------------------------------------8-8\\10-10\7-7---|
 |-0-0-0-0-0-0-0-0-0-0-0-0-0-0-0-0-0-0-0-0-0-0-0-0-0------------------|
   . . . . . . . . . . . . . . . . . . . . . . . . .

 |------------------------------------------------------------------|
 |------------------------------------------------------------------|
 |------------------------------------------------------------------|
 |---------------------------------------------------1010\9-9\7-7/9-|
 |---------------------------------------------------8-8\\7-7\5-5/7-|
 |-0-0-0-0-0-0-0-0-0-0-0-0-0-0-0-0-0-0-0-0-0-0-0-0-0-----------------|
   . . . . . . . . . . . . . . . . . . . . . . . . .

 |---------------------------------------------------------------------||
 |---------------------------------------------------------------------||
 |---------------------------------------------------------------------||
 |-------------------------------------------10------1010\12-12\9-9----||
 |-------------------------------------------8-------8-8\\10-10\7-7----||
 |-0-0-0-0-0-0-0-0-0-0-0-0-0-0-0-0-0-0-0-0-0---0-0-0-------------------||  x1
   . . . . . . . . . . . . . . . . . . . . . . . . .



Riff 6
|-----------------------------------------------------------------|
|-----------------------------------------------------------------|
|-----------------------------------------------------------------|
|---------5\4-------------5\4-------------5\4---------------------|
|---------3\2---3---------3\2---3---------3\2---3-----3-------3---|
|-0-0-0-0-----0-1-0-0-0-0-----0-1-0-0-0-0-----0-1-0-0-1---0-0-1---|  x2
  . . . .     .   . . . .     .   . . . .     .   . .     . .


Riff 7
|-------------------------------------------------------------------|
|-------------------------------------------------------------------|
|-------------------------------------------------------------------|
|---------10-9-------------10-9-------------10-9---------10------10-|
|-7-7-7-7------7-8-7-7-7-7------7-8-7-7-7-7------7-8-7-7-8---7-7-8--|
|-------------------------------------------------------------------|  x2
  . . . .      . . . . . .      . . . . . .      . . . .     . .



Riff 6      x6 (Under solo)



|-----------------|
|-----------------|
|-----------------|
|-----------------|
|-----3-----------|
|-0-0-1---0-0-1-3-|
  . .     . .


Riff 8a
|-----------------------------------------------------------------|
|-----------------------------------------------------------------|
|-----------------------------------------------------------------|
|-----------------------------------------------------------------|
|-----------------------------------------------------3-------3---|
|-000000001-0-1-3-000000001-0-1-3-000000001-0-1-3-00001-------1---|  x3
  ......... .     ......... .     ......... .     .....

Riff 8b
|-----------------------------------------------------------------|
|-----------------------------------------------------------------|
|-----------------------------------------------------------------|
|-----------------------------------------------------------------|
|-----------------------------------------------------5-------5---|
|-222222223-2-3-5-222222223-2-3-5-222222223-2-3-5-22223-------3---|  x1
  ......... .     ......... .     ......... .     ....

Riff 8c
|-----------------------------------------------------------------|
|-----------------------------------------------------------------|
|-----------------------------------------------------------------|
|-----------------------------------------------------------------|
|-----------------------------------------------------6-------6---|
|-333333334-3-4-6-333333334-3-4-6-333333334-3-4-6-33334-------4---|  x1
  ......... .     ......... .     ......... .     ....

Riff 8d
|-----------------------------------------------------------------|
|-----------------------------------------------------------------|
|-----------------------------------------------------------------|
|-----------------------------------------------------------------|
|-----------------------------------------------------8-------8---|
|-555555556-5-6-8-555555556-5-6-8-555555556-5-6-8-55556-------6---|  x1
  ......... .     ......... .     ......... .     ....

Riff 8e
|-----------------------------------------------------------------|
|-----------------------------------------------------------------|
|-----------------------------------------------------------------|
|-----------------------------------------------------------------|
|-----------------------------------------------------9-------9---|
|-666666667-6-7-9-666666667-6-7-9-666666667-6-7-9-66667-------7---|  x1
  ......... .     ......... .     ......... .     ....

Riff 8f
|-----------------------------------------------------------------|
|-----------------------------------------------------------------|
|-----------------------------------------------------------------|
|-----------------------------------------------------------------|
|-----------------------------------------------------3-------3---|
|-000000001-0-1-3-000000001-0-1-3-000000001-0-1-3-00001---00001---|  x2
  ......... .     ......... .     ......... .     .....   ....


Ending
|-------------------|
|-------------------|
|-------------------|
|-------------------|
|-----3-----------2-|
|-00001---00001-3-0-|
  ....    ....


            
            
Suggest correction
Creating personal tab
Creating personal tab
You can edit any tab online and save it as your Personal.

You can edit, replace or remove any tab part or add personal notes – all changes will be seen only by you.

Personal tabs can be accessed anytime from any device, even offline.
Learn more »
Give kudos to tab author, rate the tab!
1 2 3 4 5
comments
print report bad tab
guest
You may want to rate the tab now too:
select rating
Wanna post a correction for this tab? Suggest correction