Oops, an error
Loading. Please wait.

Boys That Sing bass

version 2
version 2

Whole song

  • This tab followed was along with several recording... Show more
331 views 1 this week
1 commentread comment
1 2 3 4 5
2 more votes to show rating
add to favorites
×
Save as Personal and add changes to this tab that will be seen only by you. Learn more ›
×
You can save this tab as Personal to edit and correct it or add notes. All changes will be seen only by you. Learn more »
launch autoscroll
font size
0
reset
guitar tuner
edit
Autoscroll
slow
fast
+/-
esc
set tempo
stop
Author
About this tab version
This tab followed was along with several recordings in its making that could find on the web of this song, and I can assure this is 95% correct as far as I know. Was this info helpful? Yes No
Tuning EADG
The verse varies in rhythm in recordings so be sure to listen carefully just incase I missed something.

|:----:| means that line repeats by the way :3

[Intro][come in at 0:07 secs]
|---------|:--------------------|--------------------:|
|---------|:------------4-7-----|------------4-7-----:|
|------12\|:------5---7-----7-5-|------5---7-----7-5-:|
|---------|:5--7----------------|5--7----------------:|

[Verse] [0:22]
|:-------------------|-------------------:|
|:-------------7-4---|-------------7-4---:|
|:------5---7------7-|------5---7------7-:|
|:5--7---------------|5--7---------------:|

[Chorus][0:50]
|--------------|----------------|----------------|----------------|
|--------------|----------------|----------------|----------------|
|--------------|----------------|5-5-5-5-5-5-5-5-|7-7-7-7-7-7-7-7-|
|5-5-5-5-5-5-5-|5-5-5-5-5-5-5-5-|----------------|----------------|

|--------------|----------------|----------------|----------------|
|--------------|----------------|----------------|----------------|
|--------------|----------------|5-5-5-5-5-5-5-5-|7-7-7-7-7-7-12\-|
|5-5-5-5-5-5-5-|5-5-5-5-5-5-5-5-|----------------|----------------|

[Verse][1:04] 
|:-------------------|-------------------:|
|:-------------7-4---|-------------7-4---:|
|:------5---7------7-|------5---7------7-:|
|:5--7---------------|5--7---------------:|

[Chorus][1:47]
|:--------------|----------------|----------------|----------------:| *repeats 3 times then goes to next line*
|:--------------|----------------|----------------|----------------:|
|:--------------|----------------|5-5-5-5-5-5-5-5-|7-7-7-7-7-7-7-7-:|
|:5-5-5-5-5-5-5-|5-5-5-5-5-5-5-5-|----------------|----------------:|

|--------------|----------------|----------------|----------------|
|--------------|----------------|----------------|----------------|
|--------------|----------------|5---------------|7---------------|
|5-5-5-5-5-5-5-|5-5-5-5-5-5-5-5-|----------------|----------------|

[Instrumental] [2:15]
|:--------------|----------------|----------------|----------------:|
|:--------------|----------------|----------------|----------------:|
|:--------------|------------5-7-|5-5-5-5-5-5-5-5-|7-7-7-7-7-7-7-7-:|
|:5-5-5-5-5-5-5-|5-5-5-5-5-7-----|----------------|----------------:|

[Verse][2:29]
|-------------------|-------------------|
|-------------7-4---|-------------7-4---|
|------5---7------7-|------5---7------7-|
|5--7---------------|5--7---------------|

[Chorus][2:36]
|:--------------|----------------|----------------|----------------:|
|:--------------|----------------|----------------|----------------:|
|:--------------|----------------|5-5-5-5-5-5-5-5-|7-7-7-7-7-7-7-7-:|
|:5-5-5-5-5-5-5-|5-5-5-5-5-5-5-5-|----------------|----------------:|

|--------------|----------------|
|--------------|----------------|
|--------------|----------------|
|5-5-5-5-5-5-5-|5-5-5-5-5-5-5-5-|

[Outro][3:01]
|---------------|--------------|----------------|
|---------------|--------------|----------------|
|5--------------|5------7------|----------------|
|---------------|--------------|5---------------|


Hope this is helpful, it's my first tabs so please give back constructive criticism if needed 
Peace, Love, Bass

            
            
Suggest correction
Creating personal tab
Creating personal tab
You can edit any tab online and save it as your Personal.

You can edit, replace or remove any tab part or add personal notes – all changes will be seen only by you.

Personal tabs can be accessed anytime from any device, even offline.
Learn more »
Give kudos to tab author, rate the tab!
1 2 3 4 5
comments
print report bad tab
1 comment total.
0 reply
ravensfan2785 2,124 Sep 16, 2016 02:23 AM, edited on November 20 2016, 05:34 am

You literally just copied my tab man. I don't understand, what was the point of publishing this? This doesn't improve upon my contribution nor differentiate from it in any way.

guest
You may want to rate the tab now too:
select rating
Wanna post a correction for this tab? Suggest correction