Oops, an error
Loading. Please wait.

Thrash Maniacs tab

version 1
version 1

Whole song

Interactive

4,279 views 3 this week
no commentswrite comment
1 2 3 4 5
3 more votes to show rating
add to favorites
×
Save as Personal and add changes to this tab that will be seen only by you. Learn more ›
×
You can save this tab as Personal to edit and correct it or add notes. All changes will be seen only by you. Learn more »
launch autoscroll
font size
0
reset
how to read this tab
guitar tuner
edit
Autoscroll
slow
fast
+/-
esc
set tempo
stop
Author
Difficulty
Band:  Violator
Album: Violent Mosh
Song:  Thrash Maniacs

Copyright (c)  Kill Again Records 2004
Version 1.0 - 04.30.2008

Transcribed By: rapeandruin
Email:          deedsoftheforsaken@gmail.com


bpm = 210

                    PM PM PM PM PM PM
                                      |----3----|
      Q          E  S  S  S  S  S  S  Q    Q    Q
E||---------||---------------------------------------|
B||---------||---------------------------------------|
G||---------||*--------------------------------------|
D||---------||*--------------------------------------|
A||---------||---2--------------------8----7----5----|
E||--12\----||---0--0--0--0--0--0--0--6----5----3----|


     PM PM PM PM PM PM                       PM PM PM PM PM PM
                       |-----3----|                            |----3----|
  E  S  S  S  S  S  S  Q    Q     Q       E  S  S  S  S  S  S  Q    Q    Q
---------------------------------------|--------------------------------------|
---------------------------------------|--------------------------------------|
---------------------------------------|--------------------------------------|
---------------------------------------|--------------------------------------|
--7--------------------8----7----10----|--7--------------------8----7----5----|
--5--0--0--0--0--0--0--6----5-----8----|--5--0--0--0--0--0--0--6----5----3----|


     PM PM PM PM PM PM    PM PM PM PM PM PM
  E  S  S  S  S  S  S  E  S  S  S  S  S  S
---------------------------------------------||
---------------------------------------------||
--------------------------------------------*||
--------------------------------------------*||
--7--------------------2---------------------||
--5--0--0--0--0--0--0--0--0--0--0--0--0--0---||


     PM PM PM PM PM PM                      PM PM PM PM PM PM
                       |----3----|                            |-----3----|
  E  S  S  S  S  S  S  Q    Q    Q       E  S  S  S  S  S  S  Q    Q     Q
--------------------------------------|---------------------------------------|
--------------------------------------|---------------------------------------|
--------------------------------------|---------------------------------------|
--------------------------------------|---------------------------------------|
--2--------------------8----7----5----|--7--------------------8----7----10----|
--0--0--0--0--0--0--0--6----5----3----|--5--0--0--0--0--0--0--6----5-----8----|


                                            THRASH!
     PM PM PM PM PM PM
                       |----3----|
  E  S  S  S  S  S  S  Q    Q    Q       E  H        Q.
--------------------------------------|---------------------|
--------------------------------------|---------------------|
--------------------------------------|---------------------|
--------------------------------------|---------------------|
--7--------------------8----7----5----|--7------------------|
--5--0--0--0--0--0--0--6----5----3----|--5------------------|


     PM PM PM PM PM PM                      PM PM PM PM PM PM
                       |----3----|                            |-----3----|
  E  S  S  S  S  S  S  Q    Q    Q       E  S  S  S  S  S  S  Q    Q     Q
--------------------------------------|---------------------------------------|
--------------------------------------|---------------------------------------|
--------------------------------------|---------------------------------------|
--------------------------------------|---------------------------------------|
--2--------------------8----7----5----|--7--------------------8----7----10----|
--0--0--0--0--0--0--0--6----5----3----|--5--0--0--0--0--0--0--6----5-----8----|


     PM PM PM PM PM PM
                       |----3----|
  E  S  S  S  S  S  S  Q    Q    Q
--------------------------------------|
--------------------------------------|
--------------------------------------|
--------------------------------------|
--7--------------------8----7----5----|
--5--0--0--0--0--0--0--6----5----3----|


     PM PM PM PM PM PM    PM PM PM PM PM PM
  E  S  S  S  S  S  S  E  S  S  S  S  S  S
--------------------------------------------|
--------------------------------------------|
--------------------------------------------|
--------------------------------------------|
--7--------------------2--------------------|
--5--0--0--0--0--0--0--0--0--0--0--0--0--0--|


     PM PM PM PM PM PM                      PM PM PM PM PM PM
                       |----3----|                            |-----3----|
  E  S  S  S  S  S  S  Q    Q    Q       E  S  S  S  S  S  S  Q    Q     Q
--------------------------------------|---------------------------------------|
--------------------------------------|---------------------------------------|
--------------------------------------|---------------------------------------|
--------------------------------------|---------------------------------------|
--2--------------------8----7----5----|--7--------------------8----7----10----|
--0--0--0--0--0--0--0--6----5----3----|--5--0--0--0--0--0--0--6----5-----8----|


     PM PM PM PM PM PM
                       |----3----|
  E  S  S  S  S  S  S  Q    Q    Q
--------------------------------------|
--------------------------------------|
--------------------------------------|
--------------------------------------|
--7--------------------8----7----5----|
--5--0--0--0--0--0--0--6----5----3----|


     PM PM PM PM PM PM PM PM PM               PM PM    PM PM    PM PM
  E  S  S  S  S  S  S  S  S  S  S  Q          E  E  E  E  E  E  E  E
-----------------------------------------||---------------------------|
-----------------------------------------||---------------------------|
-----------------------------------------||*--------------------------|
-----------------------------------------||*--------7--------5--------|
--7--------------------------------------||---------5--------3--------|
--5--0--0--0--0--0--0--0--0--0--0-12\----||---0--0-----0--0-----0--0--|


     PM PM    PM PM           PM PM    PM PM    PM PM
  E  E  E  E  E  E  E   E     E  E  E  E  E  E  E  E
---------------------------|--------------------------|
---------------------------|--------------------------|
---------------------------|--------------------------|
---------------------------|--------7--------5--------|
--5--------4--------8s--7--|--------5--------3--------|
--3--0--0--2--0--0--6s--5--|--0--0-----0--0-----0--0--|


     PM PM    PM PM              PM PM           PM PM
  E  E  E  E  E  E  E   E        E  E  Q    Q    E  E
----------------------------||-------------------------|
----------------------------||-------------------------|
---------------------------*||*------------------------|
---------------------------*||*--------7----5----------|
--5--------4--------4s--8---||---------5----3----------|
--3--0--0--2--0--0--2s--6---||---0--0------------0--0--|


  PM PM           PM PM    PM PM           PM PM    PM PM PM PM PM PM
  E  E  Q    Q    E  E     E  E  Q    Q    E  E     E  E  E  E  E  E  Q     3x
------------------------|------------------------|--------------------------||
------------------------|------------------------|--------------------------||
------------------------|------------------------|-------------------------*||
------------------------|------------------------|-------------------------*||
--------5----4----------|--------8----7----------|--------------4--5--7-----||
--0--0--3----2----0--0--|--0--0--6----5----0--0--|--0--0--0--0--2--3--5-----||


   PM PM    PM PM    PM PM       PM PM    PM PM
   E  E  E  E  E  E  E  E     E  E  E  E  E  E  E   E
---------------------------|---------------------------|
---------------------------|---------------------------|
*--------------------------|---------------------------|
*--------7--------5--------|---------------------------|
---------5--------3--------|--5--------4--------8s--7--|
---0--0-----0--0-----0--0--|--3--0--0--2--0--0--6s--5--|


  PM PM    PM PM    PM PM       PM PM    PM PM
  E  E  E  E  E  E  E  E     E  E  E  E  E  E  E   E   4x
--------------------------|----------------------------||
--------------------------|----------------------------||
--------------------------|---------------------------*||
--------7--------5--------|---------------------------*||
--------5--------3--------|--5--------4--------4s--8---||
--0--0-----0--0-----0--0--|--3--0--0--2--0--0--2s--6---||


   PM PM           PM PM    PM PM           PM PM    PM PM           PM PM
   E  E  Q    Q    E  E     E  E  Q    Q    E  E     E  E  Q    Q    E  E
-------------------------|------------------------|------------------------|
-------------------------|------------------------|------------------------|
*------------------------|------------------------|------------------------|
*--------7----5----------|------------------------|------------------------|
---------5----3----------|--------5----4----------|--------8----7----------|
---0--0------------0--0--|--0--0--3----2----0--0--|--0--0--6----5----0--0--|


  PM PM PM PM PM PM           PM PM    PM PM    PM PM
  E  E  E  E  E  E  Q     4x  E  E  E  E  E  E  E  E
--------------------------||--------------------------|
--------------------------||--------------------------|
-------------------------*||--------------------------|
-------------------------*||--------7--------5--------|
--------------4--5--7-----||--------5--------3--------|
--0--0--0--0--2--3--5-----||--0--0-----0--0-----0--0--|


     PM PM    PM PM           PM PM    PM PM    PM PM
  E  E  E  E  E  E  E   E     E  E  E  E  E  E  E  E
---------------------------|--------------------------|
---------------------------|--------------------------|
---------------------------|--------------------------|
---------------------------|--------7--------5--------|
--5--------4--------8s--7--|--------5--------3--------|
--3--0--0--2--0--0--6s--5--|--0--0-----0--0-----0--0--|


     PM PM    PM PM           PM PM    PM PM    PM PM
  E  E  E  E  E  E  E   E     E  E  E  E  E  E  E  E
---------------------------|--------------------------|
---------------------------|--------------------------|
---------------------------|--------------------------|
---------------------------|--------7--------5--------|
--5--------4--------4s--8--|--------5--------3--------|
--3--0--0--2--0--0--2s--6--|--0--0-----0--0-----0--0--|


     PM PM    PM PM           PM PM    PM PM    PM PM
  E  E  E  E  E  E  E   E     E  E  E  E  E  E  E  E
---------------------------|--------------------------|
---------------------------|--------------------------|
---------------------------|--------------------------|
---------------------------|--------7--------5--------|
--5--------4--------8s--7--|--------5--------3--------|
--3--0--0--2--0--0--6s--5--|--0--0-----0--0-----0--0--|


     PM PM    PM PM                        PM PM    PM PM    PM PM
  E  E  E  E  E  E  E  E     H             E  E  E  E  E  E  E  E
--------------------------|-----------||---------------------------|
--------------------------|-----------||---------------------------|
--------------------------|-----------||*--------------------------|
--------------------------|-----------||*--------7--------5--------|
--5--------4--------2-----|-----------||---------5--------3--------|
--3--0--0--2--0--0--0-----|-----------||---0--0-----0--0-----0--0--|


     PM PM    PM PM           PM PM    PM PM    PM PM
  E  E  E  E  E  E  E   E     E  E  E  E  E  E  E  E
---------------------------|--------------------------|
---------------------------|--------------------------|
---------------------------|--------------------------|
---------------------------|--------7--------5--------|
--5--------4--------8s--7--|--------5--------3--------|
--3--0--0--2--0--0--6s--5--|--0--0-----0--0-----0--0--|


     PM PM    PM PM              PM PM           PM PM
  E  E  E  E  E  E  E   E   6x   E  E  Q    Q    E  E
----------------------------||-------------------------|
----------------------------||-------------------------|
---------------------------*||*------------------------|
---------------------------*||*--------7----5----------|
--5--------4--------4s--8---||---------5----3----------|
--3--0--0--2--0--0--2s--6---||---0--0------------0--0--|


  PM PM           PM PM    PM PM           PM PM    PM PM PM PM PM PM
  E  E  Q    Q    E  E     E  E  Q    Q    E  E     E  E  E  E  E  E  Q     3x
------------------------|------------------------|--------------------------||
------------------------|------------------------|--------------------------||
------------------------|------------------------|-------------------------*||
------------------------|------------------------|-------------------------*||
--------5----4----------|--------8----7----------|--------------4--5--7-----||
--0--0--3----2----0--0--|--0--0--6----5----0--0--|--0--0--0--0--2--3--5-----||


  PM PM           PM PM    PM PM           PM PM    PM PM           PM PM
  E  E  Q    Q    E  E     E  E  Q    Q    E  E     E  E  Q    Q    E  E
------------------------|------------------------|------------------------|
------------------------|------------------------|------------------------|
------------------------|------------------------|------------------------|
--------7----5----------|------------------------|------------------------|
--------5----3----------|--------5----4----------|--------8----7----------|
--0--0------------0--0--|--0--0--3----2----0--0--|--0--0--6----5----0--0--|


  PM PM PM PM PM PM
  E  E  E  E  E  E  Q       W
-------------------------|-------------------|
-------------------------|-------------------|
-------------------------|-------------------|
-------------------------|-------------------|
--------------4--5--7----|--L----------------|
--0--0--0--0--2--3--5----|--L----------------|


     PM PM PM PM PM PM PM PM PM PM PM PM PM PM
  E  S  S  S  S  S  S  S  S  S  S  S  S  S  S
-----------------------------------------------|
-----------------------------------------------|
-----------------------------------------------|
--7--------------------------------------------|
--5--------------------------------------------|
-----0--0--0--0--0--0--0--0--0--0--0--0--0--0--|


     PM PM PM PM PM PM PM PM PM PM PM PM PM PM
  E  S  S  S  S  S  S  S  S  S  S  S  S  S  S
-----------------------------------------------|
-----------------------------------------------|
-----------------------------------------------|
--5--------------------------------------------|
--3--------------------------------------------|
-----0--0--0--0--0--0--0--0--0--0--0--0--0--0--|


     PM PM PM PM PM PM PM PM PM PM PM PM PM PM
  E  S  S  S  S  S  S  S  S  S  S  S  S  S  S
-----------------------------------------------|
-----------------------------------------------|
-----------------------------------------------|
-----------------------------------------------|
--5--------------------------------------------|
--3--0--0--0--0--0--0--0--0--0--0--0--0--0--0--|


     PM PM PM PM PM PM PM PM PM
  E  S  S  S  S  S  S  E  E  Q
----------------------------------|
----------------------------------|
----------------------------------|
----------------------------------|
--4--------------------4--5--7----|
--2--0--0--0--0--0--0--2--3--5----|


     PM PM PM PM PM PM PM PM PM PM PM PM PM PM
  E  S  S  S  S  S  S  S  S  S  S  S  S  S  S
-----------------------------------------------|
-----------------------------------------------|
-----------------------------------------------|
--7--------------------------------------------|
--5--------------------------------------------|
-----0--0--0--0--0--0--0--0--0--0--0--0--0--0--|


     PM PM PM PM PM PM PM PM PM PM PM PM PM PM
  E  S  S  S  S  S  S  S  S  S  S  S  S  S  S
-----------------------------------------------|
-----------------------------------------------|
-----------------------------------------------|
--5--------------------------------------------|
--3--------------------------------------------|
-----0--0--0--0--0--0--0--0--0--0--0--0--0--0--|


     PM PM PM PM PM PM PM PM PM PM PM PM PM PM
  E  S  S  S  S  S  S  S  S  S  S  S  S  S  S
-----------------------------------------------|
-----------------------------------------------|
-----------------------------------------------|
-----------------------------------------------|
--5--------------------------------------------|
--3--0--0--0--0--0--0--0--0--0--0--0--0--0--0--|


     PM PM PM PM PM PM PM PM PM
  E  S  S  S  S  S  S  E  E  Q
----------------------------------|
----------------------------------|
----------------------------------|
----------------------------------|
--4--------------------4--5--7----|
--2--0--0--0--0--0--0--2--3--5----|


     PM PM PM PM PM PM PM PM PM PM PM PM PM PM
  E  S  S  S  S  S  S  S  S  S  S  S  S  S  S
-----------------------------------------------|
-----------------------------------------------|
-----------------------------------------------|
--7--------------------------------------------|
--5--------------------------------------------|
-----0--0--0--0--0--0--0--0--0--0--0--0--0--0--|


     PM PM PM PM PM PM PM PM PM PM PM PM PM PM
  E  S  S  S  S  S  S  S  S  S  S  S  S  S  S
-----------------------------------------------|
-----------------------------------------------|
-----------------------------------------------|
--5--------------------------------------------|
--3--------------------------------------------|
-----0--0--0--0--0--0--0--0--0--0--0--0--0--0--|


     PM PM PM PM PM PM PM PM PM PM PM PM PM PM
  E  S  S  S  S  S  S  S  S  S  S  S  S  S  S
-----------------------------------------------|
-----------------------------------------------|
-----------------------------------------------|
-----------------------------------------------|
--5--------------------------------------------|
--3--0--0--0--0--0--0--0--0--0--0--0--0--0--0--|


     PM PM PM PM PM PM PM PM PM
  E  S  S  S  S  S  S  E  E  Q
----------------------------------|
----------------------------------|
----------------------------------|
----------------------------------|
--4--------------------4--5--7----|
--2--0--0--0--0--0--0--2--3--5----|


     PM PM PM PM PM PM PM PM PM PM PM PM PM PM
  E  S  S  S  S  S  S  S  S  S  S  S  S  S  S
-----------------------------------------------|
-----------------------------------------------|
-----------------------------------------------|
--7--------------------------------------------|
--5--------------------------------------------|
-----0--0--0--0--0--0--0--0--0--0--0--0--0--0--|


     PM PM PM PM PM PM PM PM PM PM PM PM PM PM
  E  S  S  S  S  S  S  S  S  S  S  S  S  S  S
-----------------------------------------------|
-----------------------------------------------|
-----------------------------------------------|
--5--------------------------------------------|
--3--------------------------------------------|
-----0--0--0--0--0--0--0--0--0--0--0--0--0--0--|


     PM PM PM PM PM PM PM PM PM PM PM PM PM PM
  E  S  S  S  S  S  S  S  S  S  S  S  S  S  S
-----------------------------------------------|
-----------------------------------------------|
-----------------------------------------------|
-----------------------------------------------|
--5--------------------------------------------|
--3--0--0--0--0--0--0--0--0--0--0--0--0--0--0--|


     PM PM PM PM PM PM PM PM PM      PM PM PM PM PM PM PM PM PM PM PM PM
  E  S  S  S  S  S  S  E  E  Q       E  S  S  S  S  E  E  S  S  S  S  E
----------------------------------|--------------------------------------|
----------------------------------|--------------------------------------|
----------------------------------|--------------------------------------|
----------------------------------|--------------------------------------|
--4--------------------4--5--7----|--------------------------------------|
--2--0--0--0--0--0--0--2--3--5----|--2--2--2--2--2--2--2--2--2--2--2--2--|


  PM PM PM PM PM PM                 PM PM PM PM PM PM PM PM PM PM PM PM
  E  S  S  S  S  S  E  Q    S E     E  S  S  S  S  E  E  S  S  S  S  E
---------------------------------|--------------------------------------|
---------------------------------|--------------------------------------|
---------------------------------|--------------------------------------|
---------------------------------|--------------------------------------|
--------------------5--5----5-4--|--------------------------------------|
--2--2--2--2--2--2--3--3----3-2--|--2--2--2--2--2--2--2--2--2--2--2--2--|


  PM PM PM PM PM PM                 PM PM PM PM PM PM PM PM PM PM PM PM
  E  S  S  S  S  S  E  Q    S E     E  S  S  S  S  E  E  S  S  S  S  E
---------------------------------|--------------------------------------|
---------------------------------|--------------------------------------|
---------------------------------|--------------------------------------|
---------------------------------|--------------------------------------|
--------------------7--7----7-4--|--------------------------------------|
--2--2--2--2--2--2--5--5----5-2--|--2--2--2--2--2--2--2--2--2--2--2--2--|


  PM PM PM PM PM PM                 PM PM PM PM PM PM PM PM PM PM PM PM
  E  S  S  S  S  S  E  Q    S E     E  S  S  S  S  E  E  S  S  S  S  E
---------------------------------|--------------------------------------|
---------------------------------|--------------------------------------|
---------------------------------|--------------------------------------|
---------------------------------|--------------------------------------|
--------------------5--5----5-4--|--------------------------------------|
--2--2--2--2--2--2--3--3----3-2--|--2--2--2--2--2--2--2--2--2--2--2--2--|


  PM PM PM PM PM PM                 PM PM PM PM PM PM PM PM PM PM PM PM
  E  S  S  S  S  S  E  Q    S E     E  S  S  S  S  E  E  S  S  S  S  E
---------------------------------|--------------------------------------|
---------------------------------|--------------------------------------|
---------------------------------|--------------------------------------|
---------------------------------|--------------------------------------|
--------------------7--7----7-4--|--------------------------------------|
--2--2--2--2--2--2--5--5----5-2--|--2--2--2--2--2--2--2--2--2--2--2--2--|


  PM PM PM PM PM PM                 PM PM PM PM PM PM PM PM PM PM PM PM
  E  S  S  S  S  S  E  Q    S E     E  S  S  S  S  E  E  S  S  S  S  E
---------------------------------|--------------------------------------|
---------------------------------|--------------------------------------|
---------------------------------|--------------------------------------|
---------------------------------|--------------------------------------|
--------------------5--5----5-4--|--------------------------------------|
--2--2--2--2--2--2--3--3----3-2--|--2--2--2--2--2--2--2--2--2--2--2--2--|


  PM PM PM PM PM PM                 PM PM PM PM PM PM PM PM PM PM PM PM
  E  S  S  S  S  S  E  Q    S E     E  S  S  S  S  E  E  S  S  S  S  E
---------------------------------|--------------------------------------|
---------------------------------|--------------------------------------|
---------------------------------|--------------------------------------|
---------------------------------|--------------------------------------|
--------------------7--7----7-4--|--------------------------------------|
--2--2--2--2--2--2--5--5----5-2--|--2--2--2--2--2--2--2--2--2--2--2--2--|


  PM PM PM PM PM PM                 PM PM PM PM PM PM PM PM PM PM PM PM
  E  S  S  S  S  S  E  Q    S E     E  S  S  S  S  E  E  S  S  S  S  E
---------------------------------|--------------------------------------|
---------------------------------|--------------------------------------|
---------------------------------|--------------------------------------|
---------------------------------|--------------------------------------|
--------------------5--5----5-4--|--------------------------------------|
--2--2--2--2--2--2--3--3----3-2--|--2--2--2--2--2--2--2--2--2--2--2--2--|


  PM   PM   PM   PM   PM   PM        PM PM    PM    PM PM
  |----3----|    |----3----|
  Q    Q    Q    Q    Q    Q         E  E  E  E  E  E  E  E
--------------------------------||---------------------------|
--------------------------------||---------------------------|
--------------------------------||*--------------------------|
--------------------------------||*--------------------------|
--7----7----7----5----5----5----||---------5-----4--------3--|
--5----5----5----3----3----3----||---0--0--3--0--2--0--0--1--|


  PM PM    PM    PM         PM PM    PM    PM PM PM
  E  E  E  E  E  E  Q       E  E  E  E  E  E  E  E     E   Q.     E   Q.      5x
-------------------------|--------------------------|-------------------------||
-------------------------|--------------------------|-------------------------||
-------------------------|--------------------------|------------------------*||
-------------------------|--------------------------|------------------------*||
--------5-----4-----7----|--------5-----4-----------|--6S--5------5S--4-------||
--0--0--3--0--2--0--5----|--0--0--3--0--2--0--0--0--|--4S--3------3S--2-------||


   PM PM           PM PM    PM PM           PM PM    PM PM           PM PM
   E  E  Q    Q    E  E     E  E  Q    Q    E  E     E  E  Q    Q    E  E
-------------------------|------------------------|------------------------|
-------------------------|------------------------|------------------------|
*------------------------|------------------------|------------------------|
*--------7----5----------|------------------------|------------------------|
---------5----3----------|--------5----4----------|--------8----7----------|
---0--0------------0--0--|--0--0--3----2----0--0--|--0--0--6----5----0--0--|


  PM PM PM PM PM PM           PM PM    PM PM    PM PM
  E  E  E  E  E  E  Q     4x  E  E  E  E  E  E  E  E
--------------------------||--------------------------|
--------------------------||--------------------------|
-------------------------*||--------------------------|
-------------------------*||--------7--------5--------|
--------------4--5--7-----||--------5--------3--------|
--0--0--0--0--2--3--5-----||--0--0-----0--0-----0--0--|


     PM PM    PM PM           PM PM    PM PM    PM PM
  E  E  E  E  E  E  E   E     E  E  E  E  E  E  E  E
---------------------------|--------------------------|
---------------------------|--------------------------|
---------------------------|--------------------------|
---------------------------|--------7--------5--------|
--5--------4--------8s--7--|--------5--------3--------|
--3--0--0--2--0--0--6s--5--|--0--0-----0--0-----0--0--|


     PM PM    PM PM           PM PM    PM PM    PM PM
  E  E  E  E  E  E  E   E     E  E  E  E  E  E  E  E
---------------------------|--------------------------|
---------------------------|--------------------------|
---------------------------|--------------------------|
---------------------------|--------7--------5--------|
--5--------4--------4s--8--|--------5--------3--------|
--3--0--0--2--0--0--2s--6--|--0--0-----0--0-----0--0--|


     PM PM    PM PM           PM PM    PM PM    PM PM
  E  E  E  E  E  E  E   E     E  E  E  E  E  E  E  E     E   Q.     E   Q.
---------------------------|--------------------------|------------------------|
---------------------------|--------------------------|------------------------|
---------------------------|--------------------------|------------------------|
---------------------------|--------7--------5--------|------------------------|
--5--------4--------8s--7--|--------5--------3--------|--6S--5------5S--4------|
--3--0--0--2--0--0--6s--5--|--0--0-----0--0-----0--0--|--4S--3------3S--2------|


  PM PM    PM    PM PM       PM PM    PM    PM         PM PM    PM    PM PM PM
  E  E  E  E  E  E  E  E     E  E  E  E  E  E  Q       E  E  E  E  E  E  E  E
--------------------------|-------------------------|--------------------------|
--------------------------|-------------------------|--------------------------|
--------------------------|-------------------------|--------------------------|
--------------------------|-------------------------|--------------------------|
--------5-----4--------3--|--------5-----4-----7----|--------5-----4-----------|
--0--0--3--0--2--0--0--1--|--0--0--3--0--2--0--5----|--0--0--3--0--2--0--0--0--|


                           PM PM    PM    PM PM       PM PM    PM    PM
  E   Q.     E   Q.        E  E  E  E  E  E  E  E     E  E  E  E  E  E  Q
------------------------|--------------------------|-------------------------|
------------------------|--------------------------|-------------------------|
------------------------|--------------------------|-------------------------|
------------------------|--------------------------|-------------------------|
--6S--5------5S--4------|--------5-----4--------3--|--------5-----4-----7----|
--4S--3------3S--2------|--0--0--3--0--2--0--0--1--|--0--0--3--0--2--0--5----|


  PM PM    PM    PM PM PM
  E  E  E  E  E  E  E  E     E   Q.     E   Q.        E   Q.     E  Q.
--------------------------|------------------------|-----------------------||
--------------------------|------------------------|-----------------------||
--------------------------|------------------------|-----------------------||
--------------------------|------------------------|-----------------------||
--------5-----4-----------|--6S--5------5S--4------|--4S--3------3--2------||
--0--0--3--0--2--0--0--0--|--4S--3------3S--2------|--2S--1------1--0------||




Duration Legend
---------------
W - whole
H - half
Q - quarter
E - 8th
S - 16th
T - 32nd
X - 64th
. - note dotted
|-n-|  - n-tuplets


Tablature Legend
----------------
L - tied note
x - dead note
g - grace note
(n) - ghost note
> - accentuded note
NH - natural harmonic
AH - artificial harmonic
TH - tapped harmonic
SH - semi harmonic
PH - pitch harmonic
h - hammer on
p - pull off
b - bend
br - bendRelease
pb - preBend
pbr - preBendRelease
brb - bendReleaseBend
\n/ - tremolo bar dip
\n - tremolo bar dive
-/n - tremolo bar Release up
/n\ - tremolo bar inverted dip
/n - tremolo bar return
-\n - tremolo bar Release down
S - shift slide
s - legato slide
/ -  slide into from below or out of upwards
\ -  slide into from above or out of downwards
~ - vibrato
W - wide vibrato
tr - trill
TP - tremolo picking
T - tapping
S - slap
P - pop
< - fade in
^ - brush up
v - brush down

            
            
Suggest correction
Creating personal tab
Creating personal tab
You can edit any tab online and save it as your Personal.

You can edit, replace or remove any tab part or add personal notes – all changes will be seen only by you.

Personal tabs can be accessed anytime from any device, even offline.
Learn more »
Give kudos to tab author, rate the tab!
1 2 3 4 5
comments
print report bad tab
guest
You may want to rate the tab now too:
select rating
Wanna post a correction for this tab? Suggest correction