Oops, an error
Loading. Please wait.

Blister In The Sun tab

version 4
version 4

Whole song

Interactive

27,759 views 1 this week
3 commentsread comments
1 2 3 4 5
x 18
add to favorites
×
Save as Personal and add changes to this tab that will be seen only by you. Learn more ›
×
You can save this tab as Personal to edit and correct it or add notes. All changes will be seen only by you. Learn more »
launch autoscroll
font size
0
reset
how to read this tab
guitar tuner
backing track
0:00
0:00
edit
Autoscroll
slow
fast
+/-
esc
set tempo
stop
VIOLENT FEMMES  -  BLISTER IN THE SUN

^ = upstroke
P = pull

Riff 1  (intro/verse)
e|-----------|-----------|-------------|
B|-----------|-----------|-------------|
G|-----------|-----------|-------------|
D|-----------|-----------|-------------|
A|---2---3p2-|---2---3p2-|---2---3p2---|  X2
E|-3---3-----|-3---3-----|-3---3-----3-|

Riff 2
e|-----------|-----------|-------------|
B|-----------|-----------|-------------|
G|---4---5p4-|---4---5p4-|---4---5p4---|
D|-5---5-----|-5---5-----|-5---5-----5-|
A|-----------|-----------|-------------|  
E|-----------|-----------|-------------|


Chorus
e|-0---0-0-----0-0-0---0---0-0-----0-0-0|
B|-0---0-0-----0-0-0---0---0-0-----0-0-0|
G|-0---0-0-----0-0-0---0---0-0-----0-0-0|
D|-2---2-2-----2-2-2---2---2-2-----2-2-2|
A|-2---2-2-----2-2-2---2---2-2-----2-2-2|
E|-0---0-0-----0-0-0---0---0-0-----0-0-0|
         ^     ^   ^         ^     ^   ^
e|-0---0-0-----0-0-0---0---0-0-----0-0-0|
B|-1---1-1-----1-1-1---1---1-1-----1-1-1|
G|-0---0-0-----0-0-0---0---0-0-----0-0-0|
D|-2---2-2-----2-2-2---2---2-2-----2-2-2|
A|-3---3-3-----3-3-3---3---3-3-----3-3-3|
E|--------------------------------------|
         ^     ^   ^         ^     ^   ^
e|-0---0-0-----0-0-0---0---0-0-----0-0-0|
B|-0---0-0-----0-0-0---0---0-0-----0-0-0|
G|-0---0-0-----0-0-0---0---0-0-----0-0-0|
D|-2---2-2-----2-2-2---2---2-2-----2-2-2|
A|-2---2-2-----2-2-2---2---2-2-----2-2-2|
E|-0---0-0-----0-0-0---0---0-0-----0-0-0|
         ^     ^   ^         ^     ^   ^
e|-0---0-0-----0-0-0-|
B|-1---1-1-----1-1-1-|
G|-0---0-0-----0-0-0-|
D|-2---2-2-----2-2-2-|
A|-3---3-3-----3-3-3-|
E|-------------------|
         ^     ^   ^
e|-2---2-2-----2-2-2---2---2-2-----2-2-2-|
B|-3---3-3-----3-3-3---3---3-3-----3-3-3-|
G|-2---2-2-----2-2-2---2---2-2-----2-2-2-|
D|-0---0-0-----0-0-0---0---0-0-----0-0-0-|
A|---------------------------------------|
E|---------------------------------------|
         ^     ^   ^         ^     ^   ^ 


Riff 1   x2
Riff 2   x4
Chorus   x1
Riff 2   x2
Chorus   x1
Riff 2   x2

Bass Solo

Chorus   x1
Riff 2   x2


I am pretty sure this is right, theres a little part right before the
wispering part (bass solo) that i can't get, but i don't think it's 
to hard.  ENJOY!!  
If this stinks and you hate me (or if you like it) 
you can E-mail me at Skidadle89@aol.com

            
            
Suggest correction
Creating personal tab
Creating personal tab
You can edit any tab online and save it as your Personal.

You can edit, replace or remove any tab part or add personal notes – all changes will be seen only by you.

Personal tabs can be accessed anytime from any device, even offline.
Learn more »
comments
print report bad tab
3 comments total.
0 reply
jacoblikesjerky 10 Mar 22, 2007 01:06 PM

one part is wrong

Riff 1 (intro/verse)
e|-----------|-----------|-------------|
B|-----------|-----------|-------------|
G|-----------|-----------|-------------|
D|-----------|-----------|-------------|
A|---2---3p2-|---2---3p2-|---2---3p2---|
E|-3---3-----|-3---3-----|-3---3-----3-|


its should be
G|-----------|-----------|-------------|
D|-----------|-----------|-------------|
A|---2---3p2-|---2---3p2-|---2--3p2---|
E|-3---3-----|-3---3-----|-3--------3-|

0 reply
patman11111 10 Apr 20, 2007 05:41 PM

sounds like crap

0 reply
Nesk_101 10 Jul 18, 2007 01:39 PM

The intro is accurate, but doesn't explain how to incorporate the drum part, which is pretty much the best part of the whole song. They also left out the chords and such for the "when i'm out walkin I strut my stuff" style parts. The "Lemme go ooooon, like a blister in the sun" part is mighty accurate.

NEEDS THE BASS LINE!!!

guest
Wanna post a correction for this tab? Suggest correction