Oops, an error
Loading. Please wait.

Please Do Not Go bass

version 1
version 1

Whole song

Interactive

8,268 views 51 this week
2 commentsread comments
1 2 3 4 5
x 17
add to favorites
×
Save as Personal and add changes to this tab that will be seen only by you. Learn more ›
×
You can save this tab as Personal to edit and correct it or add notes. All changes will be seen only by you. Learn more »
launch autoscroll
font size
0
reset
guitar tuner
edit
Autoscroll
slow
fast
+/-
esc
set tempo
stop
Author
Difficulty
Ok I'm making this because there doesn't seem to be any correct tabs of this song for
bass so I am giving it to you now. This song is played with a pick on an acoustic bass
btw. I may not have spaced out the notes appropriately at specific parts so just listen 
to the song to get the flow of when to change parts. I learned this by ear, don't worry I
have good ears. :)

Intro

G|-----------------|
D|--5--3---2--0----|       Then it goes straight into the verse
A|---------------2-|
E|-----------------|

Main Riff/Verse

G|-----------0--0------------------------------------------|
D|---------0-------3--2--0--------------0--3-2---0---------|
A|----1/2-------------------3--2--3--2---------3---3-2-----|
E|3------------------------------------------------------3-|

Main Riff/Verse Variation Going Into Chorus

G|-------------0--0-----------------------------------|
D|----------0--------3--2--0--------------------------|
A|-----1/2--------------------3--2--3--2--5--3--2--0--|
E|--3-------------------------------------------------|

P.S. you don't do the last part of the verse variation and the beginning of the chorus
twice, they are the same notes, thus they are the same part.

Chorus

G|--------------------------------------|
D|--------------5--3--2--0--------------|
A|--5--3--2--0--------------3--2--3--2--|
E|--------------------------------------|

Second Chorus/Different Verse


G|-------------0--0-----------------------------------------------|
D|----------0--------3--2--0--------------------------------------|
A|-----1/2--------------------3--2--3--2--5--5--5--5--5--5--5--5--|
E|--3-------------------------------------------------------------|


G|-------------------------------------------|
D|----------------------------0--0--2--0-----|
A|--3---2---0-----------2--0---------------2-|
E|--------------2----3-----------------------|

G|---------------------------------------------|
D|------0-----------0---------0----------------|
A|-------------2/3-------2/3------3---2---0----|
E|--2----------------------------------------2-|

Bass Solo

G|--------------0--3h4p3-----0------------------------------------------|
D|-----------0------------3-----3--2-----0--2p0-----0--2p0-----0--------|
A|------1/2---------------------------3----------3----------3-----3--2--|
E|3--3------------------------------------------------------------------|

G|--------------0--3h4p3-----0-----------------0-----0-----2h3-----0-------|
D|-----------0------------3-----3/2--0------2-----2-----0-------0-----2/3--|
A|------1/2------------------------------3---------------------------------|
E|3--3---------------------------------------------------------------------|

G|-----0-------0-------0-------0----------------------------3p2-----0---------|
D|--5-----3h5-----5p3-----3p2-----0-----------0--2p0-----0-------0-----2--3/5-|
A|-----------------------------------0--2--3----------3-----------------------|
E|----------------------------------------------------------------------------|

G|-----0-------0--2/4--0--4--0--5--0-----------------------------------------|
D|--5-----5/7----------------------------2p0----------0----0--0--0--0--------|
A|------------------------------------3-------3--2/3-------------------2-----|
E|---------------------------------------------------------------------------|

Just listen to the song to change parts but these are all the bass riffs through out the 
song. Enjoy!

            
            
Suggest correction
Creating personal tab
Creating personal tab
You can edit any tab online and save it as your Personal.

You can edit, replace or remove any tab part or add personal notes – all changes will be seen only by you.

Personal tabs can be accessed anytime from any device, even offline.
Learn more »
comments
print report bad tab
2 comments total.
0 reply
bruinadams 10 Sep 18, 2017 09:56 PM

its off by a half step, make sure to tune up a half step

+1 reply
TheSterbz 96 Sep 20, 2017 12:22 AM

I just listened to a couple versions on youtube, some have a slightly lower pitch than others, so the recording must be slowed or something. I must have listened to those back when I tabbed this song out so that it would sound closer to the instrument I was tabbing this out with. Good catch.

guest
You may want to rate the tab now too:
select rating
Wanna post a correction for this tab? Suggest correction