Oops, an error
Loading. Please wait.

Blanket tab

version 1
version 1

Whole song

Interactive

4,987 views 30 this week
3 commentsread comments
1 2 3 4 5
x 6
add to favorites
×
Save as Personal and add changes to this tab that will be seen only by you. Learn more ›
×
You can save this tab as Personal to edit and correct it or add notes. All changes will be seen only by you. Learn more »
launch autoscroll
font size
0
reset
how to read this tab
guitar tuner
edit
Autoscroll
slow
fast
+/-
esc
set tempo
stop
[Intro]

e|---------------|
B|---------------|
G|-6---6/-10-10\-|
D|---------------| x2
A|-4---4/-8--8\--|
D|---------------|


[Verse]

e|------------|--------------|--------------|---------------|--------------------|-----------------------|
B|------------|--------------|--------------|---------------|--------------------|-----------------------|
G|------------|--------------|--------------|---------------|--------------------|-----------------------|
D|-6-6--6-6-6-|-6-6-6--6-6-6-|-6-8-8--8-8-8-|-8-8-8-8-8-8-8-|-10-10-10--10-10-10-|-11--11-11-11-11-11-11-| x4
A|-8-8--8-8-8-|-8-8-8--8-8-8-|-8-8-8--8-8-8-|-8-8-8-8-8-8-8-|-8--8--8---8--8--8--|-8---8--8--8--8--8--8--|
D|------------|--------------|--------------|---------------|--------------------|-----------------------|


[Chorus]

e|-----------------|-----------------|-----------------|-----------------|-----------------|-----------------|
B|-----------------|-----------------|-----------------|-----------------|-----------------|-----------------|
G|-----------------|-----------------|-----------------|-----------------|-----------------|-----------------|
D|-1-1-1-1-1-1-1-1-|-1-1-1-1-1-1-1-1-|-4-4-4-4-4-4-4-4-|-4-4-4-4-4-4-4-4-|-8-8-8-8-8-8-8-8-|-8-8-8-8-8-8-8-8-|
A|-1-1-1-1-1-1-1-1-|-1-1-1-1-1-1-1-1-|-4-4-4-4-4-4-4-4-|-4-4-4-4-4-4-4-4-|-8-8-8-8-8-8-8-8-|-8-8-8-8-8-8-8-8-|
D|-1-1-1-1-1-1-1-1-|-1-1-1-1-1-1-1-1-|-4-4-4-4-4-4-4-4-|-4-4-4-4-4-4-4-4-|-8-8-8-8-8-8-8-8-|-8-8-8-8-8-8-8-8-|

e|-------------------------|-------------------------|
B|-------------------------|-------------------------|
G|-------------------------|-------------------------|
D|-11-11-11-11-11-11-11-11-|-11-11-11-11-11-11-11-11-|
A|-11-11-11-11-11-11-11-11-|-11-11-11-11-11-11-11-11-|
D|-11-11-11-11-11-11-11-11-|-11-11-11-11-11-11-11-11-|


[Verse]

e|------------|--------------|--------------|---------------|--------------------|-----------------------|
B|------------|--------------|--------------|---------------|--------------------|-----------------------|
G|------------|--------------|--------------|---------------|--------------------|-----------------------|
D|-6-6--6-6-6-|-6-6-6--6-6-6-|-6-8-8--8-8-8-|-8-8-8-8-8-8-8-|-10-10-10--10-10-10-|-11--11-11-11-11-11-11-| x4
A|-8-8--8-8-8-|-8-8-8--8-8-8-|-8-8-8--8-8-8-|-8-8-8-8-8-8-8-|-8--8--8---8--8--8--|-8---8--8--8--8--8--8--|
D|------------|--------------|--------------|---------------|--------------------|-----------------------|


[Chorus]

e|-----------------|-----------------|-----------------|-----------------|-----------------|-----------------|
B|-----------------|-----------------|-----------------|-----------------|-----------------|-----------------|
G|-----------------|-----------------|-----------------|-----------------|-----------------|-----------------|
D|-1-1-1-1-1-1-1-1-|-1-1-1-1-1-1-1-1-|-4-4-4-4-4-4-4-4-|-4-4-4-4-4-4-4-4-|-8-8-8-8-8-8-8-8-|-8-8-8-8-8-8-8-8-|
A|-1-1-1-1-1-1-1-1-|-1-1-1-1-1-1-1-1-|-4-4-4-4-4-4-4-4-|-4-4-4-4-4-4-4-4-|-8-8-8-8-8-8-8-8-|-8-8-8-8-8-8-8-8-|
D|-1-1-1-1-1-1-1-1-|-1-1-1-1-1-1-1-1-|-4-4-4-4-4-4-4-4-|-4-4-4-4-4-4-4-4-|-8-8-8-8-8-8-8-8-|-8-8-8-8-8-8-8-8-|

e|-------------------------|-------------------------|
B|-------------------------|-------------------------|
G|-------------------------|-------------------------|
D|-11-11-11-11-11-11-11-11-|-11-11-11-11-11-11-11-11-|
A|-11-11-11-11-11-11-11-11-|-11-11-11-11-11-11-11-11-|
D|-11-11-11-11-11-11-11-11-|-11-11-11-11-11-11-11-11-|


[Bridge]

e|-----------------------------------------|
B|-----------------------------------------|
G|-----------------------------------------|
D|--------------------------------8-8-x-10-|
A|-3-3-x-3-x-4-4-x-3--x-6-6-x-3-x-8-8-x-8--|
D|-3-3-x-1-x-4-4-x-4--x-6-6-x-4-x----------|


[Chorus]

e|-----------------|-----------------|-----------------|-----------------|-----------------|-----------------|
B|-----------------|-----------------|-----------------|-----------------|-----------------|-----------------|
G|-----------------|-----------------|-----------------|-----------------|-----------------|-----------------|
D|-1-1-1-1-1-1-1-1-|-1-1-1-1-1-1-1-1-|-4-4-4-4-4-4-4-4-|-4-4-4-4-4-4-4-4-|-8-8-8-8-8-8-8-8-|-8-8-8-8-8-8-8-8-|
A|-1-1-1-1-1-1-1-1-|-1-1-1-1-1-1-1-1-|-4-4-4-4-4-4-4-4-|-4-4-4-4-4-4-4-4-|-8-8-8-8-8-8-8-8-|-8-8-8-8-8-8-8-8-|
D|-1-1-1-1-1-1-1-1-|-1-1-1-1-1-1-1-1-|-4-4-4-4-4-4-4-4-|-4-4-4-4-4-4-4-4-|-8-8-8-8-8-8-8-8-|-8-8-8-8-8-8-8-8-|

e|-------------------------|-------------------------|
B|-------------------------|-------------------------|
G|-------------------------|-------------------------|
D|-11-11-11-11-11-11-11-11-|-11-11-11-11-11-11-11-11-|
A|-11-11-11-11-11-11-11-11-|-11-11-11-11-11-11-11-11-|
D|-11-11-11-11-11-11-11-11-|-11-11-11-11-11-11-11-11-|


[Outro]

e|---------------|
B|---------------|
G|-6---6/-10-10\-|
D|---------------| x2
A|-4---4/-8--8\--|
D|---------------|



***********************************
| /   Slide up
| \   Slide down
| x   Dead note
***********************************

            
            
Suggest correction
Creating personal tab
Creating personal tab
You can edit any tab online and save it as your Personal.

You can edit, replace or remove any tab part or add personal notes – all changes will be seen only by you.

Personal tabs can be accessed anytime from any device, even offline.
Learn more »
comments
print report bad tab
3 comments total.
0 reply
huskiguitar 43 Mar 10, 2017 10:07 PM, edited on March 11 2017, 03:09 am

Hey first of all great tab but at the top it says the tuning is in drop D although on the tab it is labeled DGCFAD so which is it?, I assume it is really drop D as Violent Soho primarily play in drop D.

+1 reply
OGT777777 253 Mar 13, 2017 06:55 PM

it's regular drop D, thanks for pointing that out, i'll update it

+1 reply
OGT777777 253 Mar 13, 2017 06:59 PM

You're right, they are typically Drop-D, but there are some songs on WACO that are Drop-Db, like Viceroy and Evergreen if i remember right

guest
You may want to rate the tab now too:
select rating
Wanna post a correction for this tab? Suggest correction