Oops, an error
Loading. Please wait.

Low tab

1,048 views 15 this week
no commentswrite comment
1 2 3 4 5
x 3
add to favorites
×
Save as Personal and add changes to this tab that will be seen only by you. Learn more ›
×
You can save this tab as Personal to edit and correct it or add notes. All changes will be seen only by you. Learn more »
launch autoscroll
font size
0
reset
how to read this tab
guitar tuner
edit
Autoscroll
slow
fast
+/-
esc
set tempo
stop
[Intro/ Verse]

e|---------------------------------------------------------------------------|
B|---------------------------------------------------------------------------|
G|---------------------------------------------------------------------------|
D|-------------------------------------------------0--------0--------0-------|
A|--------9----9---------9----9---------9----9--------4--------4-------------|
D|--0--0-----0-----0--0-----0-----0--0-----0----4--------4--------4----------| 


[Chorus]

Lead
e|------12-----12-----12-----12-----12-----12-----12-----12------------------|
B|--15-----15-----15-----15-----15-----15-----15-----15----------------------|
G|---------------------------------------------------------------------------|
D|---------------------------------------------------------------------------|
A|---------------------------------------------------------------------------|
D|---------------------------------------------------------------------------|
                                                                               Alternate:
e|------12-----12-----12-----12-----12-----12-----12-----12------------------| e|-12------12------12-----|
B|--14-----14-----14-----14-----14-----14-----14-----14------14--------------| B|-----15------14------14-|
G|---------------------------------------------------------------------------| G|------------------------|
D|---------------------------------------------------------------------------| D|------------------------|
A|---------------------------------------------------------------------------| A|------------------------|
D|---------------------------------------------------------------------------| D|------------------------|

e|--9------9------9------9------10-----10-----10-----10----------------------|
B|-----12-----12-----12-----12-----12-----12-----12-----12-------------------|
G|---------------------------------------------------------------------------|
D|---------------------------------------------------------------------------|
A|---------------------------------------------------------------------------|
D|---------------------------------------------------------------------------| x2

Whilst somehow also playing:
e|---------------------------------------------------------------------------|
B|-------------------------------------------------------------3-------------|
G|--12--12--11--7--12--12--11--7--12--12-11--7--12--12--11--7----------------|
D|---------------------------------------------------------------------------|
A|---------------------------------------------------------------------------|
D|---------------------------------------------------------------------------|

Rhythm 
e|---------------------------------------------------------------------------|
B|---------------------------------------------------------------------------|
G|---------------------------------------------------------------------------|
D|--0--0--0--0--0--0--0--0--7--7--7--7--7--7--7--7---------------------------|
A|--0--0--0--0--0--0--0--0--7--7--7--7--7--7--7--7---------------------------|
D|--0--0--0--0--0--0--0--0--7--7--7--7--7--7--7--7---------------------------|

e|---------------------------------------------------------------------------|
B|---------------------------------------------------------------------------|
G|---------------------------------------------------------------------------|
D|--5--5--5--5--5--5--5--5--5--5--5--5--5--5--5--5---------------------------|
A|--5--5--5--5--5--5--5--5--5--5--5--5--5--5--5--5---------------------------|
D|--5--5--5--5--5--5--5--5--5--5--5--5--5--5--5--5---------------------------|


[Verse]

e|---------------------------------------------------------------------------|
B|---------------------------------------------------------------------------|
G|---------------------------------------------------------------------------|
D|-------------------------------------------------0--------0--------0-------|
A|--------9----9---------9----9---------9----9--------4--------4-------------|
D|--0--0-----0-----0--0-----0-----0--0-----0----4--------4--------4----------| 


[Chorus]

Lead
e|------12-----12-----12-----12-----12-----12-----12-----12------------------|
B|--15-----15-----15-----15-----15-----15-----15-----15----------------------|
G|---------------------------------------------------------------------------|
D|---------------------------------------------------------------------------|
A|---------------------------------------------------------------------------|
D|---------------------------------------------------------------------------|
                                                                               Alternate:
e|------12-----12-----12-----12-----12-----12-----12-----12------------------| e|-12------12------12-----|
B|--14-----14-----14-----14-----14-----14-----14-----14------14--------------| B|-----15------14------14-|
G|---------------------------------------------------------------------------| G|------------------------|
D|---------------------------------------------------------------------------| D|------------------------|
A|---------------------------------------------------------------------------| A|------------------------|
D|---------------------------------------------------------------------------| D|------------------------|

e|--9------9------9------9------10-----10-----10-----10----------------------|
B|-----12-----12-----12-----12-----12-----12-----12-----12-------------------|
G|---------------------------------------------------------------------------|
D|---------------------------------------------------------------------------|
A|---------------------------------------------------------------------------|
D|---------------------------------------------------------------------------| x2

And again also playing:
e|---------------------------------------------------------------------------|
B|-------------------------------------------------------------3-------------|
G|--12--12--11--7--12--12--11--7--12--12-11--7--12--12--11--7----------------|
D|---------------------------------------------------------------------------|
A|---------------------------------------------------------------------------|
D|---------------------------------------------------------------------------|

Rhythm 
e|---------------------------------------------------------------------------|
B|---------------------------------------------------------------------------|
G|---------------------------------------------------------------------------|
D|--0--0--0--0--0--0--0--0--7--7--7--7--7--7--7--7---------------------------|
A|--0--0--0--0--0--0--0--0--7--7--7--7--7--7--7--7---------------------------|
D|--0--0--0--0--0--0--0--0--7--7--7--7--7--7--7--7---------------------------|

e|---------------------------------------------------------------------------|
B|---------------------------------------------------------------------------|
G|---------------------------------------------------------------------------|
D|--5--5--5--5--5--5--5--5--5--5--5--5--5--5--5--5---------------------------|
A|--5--5--5--5--5--5--5--5--5--5--5--5--5--5--5--5---------------------------|
D|--5--5--5--5--5--5--5--5--5--5--5--5--5--5--5--5---------------------------|


[Breakdown/solo]

e|---------------------------------------------------|
B|--0-0-0-0-0-0-0-0-0-0-0-0-0-0-0-0-0-0-0-0-0-0-0-0--|
G|--4-4-4-4-4-4-4-4-4-4-4-4-4-4-4-4-4-4-4-4-4-4-4-4--|
D|---------------------------------------------------|
A|---------------------------------------------------|
D|---------------------------------------------------|

e|---------------------------------------------------|
B|--12-12-12-12-12-12-12-12-12-12-12-12-12-12-12-12--|
G|---------------------------------------------------|
D|---------------------------------------------------|
A|---------------------------------------------------|
D|---------------------------------------------------|

e|---------------------------------------------------|
B|--11-11-11-11-11-11-11-11-12-12-12-12-12-12-12-12--|
G|---------------------------------------------------|
D|---------------------------------------------------|
A|---------------------------------------------------|
D|---------------------------------------------------|


e|---------------------------------------------------|
B|--12-12-12-12-12-12-12-12-12-12-12-12-12-12-12-12--|
G|---------------------------------------------------|
D|---------------------------------------------------|
A|---------------------------------------------------|
D|---------------------------------------------------|

e|--13-13-13-13-13-13-13-13-14-14-14-14-14-14-14-14--|
B|---------------------------------------------------|
G|---------------------------------------------------|
D|---------------------------------------------------|
A|---------------------------------------------------|
D|---------------------------------------------------|

Bend gets bigger
       ----------------->        ----------------->
e|-12-12-12-12-12b12b12b12b-12-12-12-12-12b12b12b12b-|      e|---------|
B|---------------------------------------------------|      B|---------|
G|---------------------------------------------------|      G|----/7---|
D|---------------------------------------------------|      D|---------|
A|---------------------------------------------------|      A|---------|
D|---------------------------------------------------|  x4  E|---------|


[Outro]

e|---------------------------------------------------------------------------|
B|---------------------------------------------------------------------------|
G|---------------------------------------------------------------------------|
D|-------------------------------------------------0--------0--------0-------|
A|--------9----9---------9----9---------9----9--------4--------4-------------|
D|--0--0-----0-----0--0-----0-----0--0-----0----4--------4--------4------0---|


e|---------------------------------------------------------------------------|
B|---------------------------------------------------------------------------|
G|---------------------------------------------------------------------------|
D|-------------------------------------------------0--------0--------0-------|
A|--------9----9---------9----9---------9----9--------4--------4-------------|
D|--0--0-----0-----0--0-----0-----0--0-----0----4--------4--------4----------| x6

Superimposed with:
e|---------------------------------------------------------------------------|
B|---------------------------------------------------------------------------|
G|------7---7---7---7---6---6---6---6---11--11--11--11---6---6---6---6-------|
D|---------------------------------------------------------------------------|
A|---------------------------------------------------------------------------|
D|---------------------------------------------------------------------------|x6



************************************
| x   Dead note
| b   Bend
************************************

            
            
Suggest correction
Creating personal tab
Creating personal tab
You can edit any tab online and save it as your Personal.

You can edit, replace or remove any tab part or add personal notes – all changes will be seen only by you.

Personal tabs can be accessed anytime from any device, even offline.
Learn more »
Give kudos to tab author, rate the tab!
1 2 3 4 5
comments
print report bad tab
guest
You may want to rate the tab now too:
select rating
Wanna post a correction for this tab? Suggest correction