Oops, an error
Loading. Please wait.

Son Of Sam intro bass

1,119 views 6 this week
no commentswrite comment
1 2 3 4 5
2 more votes to show rating
add to favorites
×
Save as Personal and add changes to this tab that will be seen only by you. Learn more ›
×
You can save this tab as Personal to edit and correct it or add notes. All changes will be seen only by you. Learn more »
launch autoscroll
font size
0
reset
guitar tuner
edit
Autoscroll
slow
fast
+/-
esc
set tempo
stop
Difficulty
hey que onda banda...
mi primer tab de bajo
soy bien malo escuchando y casi no pongo atencion
pero esta rola esta algo sencilla y pues violent soho rifa
pues ahi va y ojala este correcto y creo que es la primer 
tablatura de bajo de violent
saludos desde mexico
cheers!



INTRO
G|---------------------------------------|
D|---------------------------------------|
A|---------------------------------------|
E|-2-2-2-2-2-2-2-2--5-5-5-5--10-10--9-9--| x 2

(distortion)
G|-----------------------------------------------------------------|
D|---------4-4-4-4---------7-7-7-7---------4-4-4-4---------7-7-7-7-|
A|-----------------------------------------------------------------|
E|-2-2-2-2---------5-5-5-5---------2-2-2-2---------5-5-5-5---------|

VERSE(x2)
G|---------------------------------------------------------------------|
D|------------------------------------------------------------7-7-7-7--|
A|---------------------------------------------------------------------|
E|-2-2-2-2-2-2-2-2-5-5-5-5-10-10-9-9--2-2-2-2-2-2-2-2-5-5-5-5----------|

CHORUS(x4)
G|---------------------------------|
D|---------------------------------|
A|-----------------5-5-5-5-4-4-4-4-|
E|-2-2-2-2-3-3-3-3-----------------|

VERSE AGAIN(x4)
G|--------------------------7-7-6-6----|
D|-------------------------------------|
A|-------------------------------------|
E|-2-2-2-2-2-2-2-2--5-5-5-5------------|

CHORUS(x4)
G|---------------------------------|
D|---------------------------------|
A|-----------------5-5-5-5-4-4-4-4-|
E|-2-2-2-2-3-3-3-3-----------------|

BRIDGE(x2)
G|----------------------------------|
D|----------------------------------|
A|----------------------------------|
E|--2-2-2-2-2-2-2-2-2-2-2-2-2-2-2-2-|

CHORUS(x8)
G|-----------------------------------|---------------------------------|
D|º---------------------------------º|---------------------------------|
A|º-----------------5-5-5-5-4-4-4-4-º|---------------------------------|
E|--2-2-2-2-3-3-3-3------------------|-2-2-2-2-2-2-2-2-2-2-2-2-2-2-2-2-|

(distortion)
G|-----------------------------------------------------------------|
D|---------4-4-4-4---------7-7-7-7---------4-4-4-4---------7-7-7-7-|
A|-----------------------------------------------------------------|
E|-2-2-2-2---------5-5-5-5---------2-2-2-2---------5-5-5-5---------|

VERSE (x2)
G|--------------------------7-7-6-6----|
D|-------------------------------------|
A|-------------------------------------|
E|-2-2-2-2-2-2-2-2--5-5-5-5------------|

CHORUS(x8)
G|-----------------------------------|
D|-----------------------------------|
A|------------------5-5-5-5-4-4-4-4--|
E|--2-2-2-2-3-3-3-3------------------|

OUTRO
(distortion)
G|-------------------------------------|
D|---------4-4-4-4---------7-7-7-7-----|
A|-------------------------------------|
E|-2-2-2-2---------5-5-5-5---------2/--|


ROCK FOREVER !!!


            
            
Suggest correction
Creating personal tab
Creating personal tab
You can edit any tab online and save it as your Personal.

You can edit, replace or remove any tab part or add personal notes – all changes will be seen only by you.

Personal tabs can be accessed anytime from any device, even offline.
Learn more »
Give kudos to tab author, rate the tab!
1 2 3 4 5
comments
print report bad tab
guest
Wanna post a correction for this tab? Suggest correction