Oops, an error
Loading. Please wait.

Viceroy tab

version 3
version 3

Whole song

  • Different Tuning to other slightly similar one plu... Show more
2,941 views 48 this week
3 commentsread comments
1 2 3 4 5
x 11
add to favorites
×
Save as Personal and add changes to this tab that will be seen only by you. Learn more ›
×
You can save this tab as Personal to edit and correct it or add notes. All changes will be seen only by you. Learn more »
launch autoscroll
font size
0
reset
how to read this tab
guitar tuner
edit
Autoscroll
slow
fast
+/-
esc
set tempo
stop
About this tab version
Different Tuning to other slightly similar one plus different all around includes solo. Was this info helpful? Yes No
Viceroy
Violent Soho (2016)
https://www.youtube.com/watch?v=gOkFZR5_slk

Tuning Drop D (DADGBe)

[Verse 1]

e|--------------------------|--------------------------|
B|---------12-12-12--9---9--|---------12-12-12--9---9--|
G|---------9--9--9---9---9--|---------9--9--9---9---9--|
D|--------------------------|--------------------------|
A|--------------------------|--------------------------|
D|--------------------------|--------------------------|



[Pre-Chorus] all palm muted

e|------------------------|------------------------|
B|------------------------|------------------------|
G|------------------------|------------------------|
D|-2--2--2--2--9--9--9--9-|-4--4--4--4--7--7--7--7-|
A|-2--2--2--2--9--9--9--9-|-4--4--4--4--7--7--7--7-|
D|-2--2--2--2--9--9--9--9-|-4--4--4--4--7--7--7--7-| x4



[Chorus]Distortion + Overdrive

e|------------------------|------------------------|
B|------------------------|------------------------|
G|------------------------|-6--6--6--6-------------|
D|-2--2--2--2--7--6--4--6-|-6--6--6--6--7--6--4--6-|
A|-2--2--2--2--7--6--4--6-|-4--4--4--4--7--6--4--6-|
D|-2--2--2--2--7--6--4--6-|-------------7--6--4--6-| x4

        In last repeat second guitar:
        e|--------------------------|--------------------------|
        B|---------12-12-12--9---9--|---------12-12-12--9---9--|
        G|---------9--9--9---9---9--|---------9--9--9---9---9--|
        D|--------------------------|--------------------------|
        A|--------------------------|--------------------------|
        D|--------------------------|--------------------------|



[Verse 2]

e|--------------------------|--------------------------|
B|---------12-12-12--9---9--|---------12-12-12--9---9--|
G|---------9--9--9---9---9--|---------9--9--9---9---9--|
D|--------------------------|--------------------------|
A|--------------------------|--------------------------|
D|--------------------------|--------------------------|




[Pre-Chorus] all palm muted

e|------------------------|------------------------|
B|------------------------|------------------------|
G|------------------------|------------------------|
D|-2--2--2--2--9--9--9--9-|-4--4--4--4--7--7--7--7-|
A|-2--2--2--2--9--9--9--9-|-4--4--4--4--7--7--7--7-|
D|-2--2--2--2--9--9--9--9-|-4--4--4--4--7--7--7--7-| x4



[Chorus]Distortion + Overdrive

e|------------------------|------------------------|
B|------------------------|------------------------|
G|------------------------|-6--6--6--6-------------|
D|-2--2--2--2--7--6--4--6-|-6--6--6--6--7--6--4--6-|
A|-2--2--2--2--7--6--4--6-|-4--4--4--4--7--6--4--6-|
D|-2--2--2--2--7--6--4--6-|-------------7--6--4--6-| x4

e|------------------------|------------------------|
B|------------------------|------------------------|
G|------------------------|------------------------|
D|-2--2--2--2--9--9--9--9-|-4--4--4--4--7--7--7--7-|
A|-2--2--2--2--9--9--9--9-|-4--4--4--4--7--7--7--7-|
D|-2--2--2--2--9--9--9--9-|-4--4--4--4--7--7--7--7-| x4

e|------------------------|------------------------|
B|------------------------|------------------------|
G|------------------------|------------------------|
D|-2--2--2--2--2--2--2--2-|-2--2--2--2--2--2--2--2-|
A|-2--2--2--2--2--2--2--2-|-2--2--2--2--2--2--2--2-|
D|-2--2--2--2--2--2--2--2-|-2--2--2--2--2--2--2--2-| x2

e|--------------------------------|--------------------------------|
B|--------------------------------|--------------------------------|
G|--------------------------------|--------------------------------|
D|--------------------------------|--------------------------------|
A|-14--14--14--14--14--14--14--14-|-14--14--14--14--14--14--14--14-|
D|-14--14--14--14--14--14--14--14-|-14--14--14--14--14--14--14--14-|



[Solo]

e|-------------|------------------------------|-------------------------|
B|-------------|------------------------------|-------------------------|
G|--11b14------|-14--14-13--11--13--11--9--11-|-9--8--9--8--9--11--9--8-|
D|-------------|------------------------------|-------------------------|
A|-------------|------------------------------|-------------------------|
D|-------------|------------------------------|-------------------------|

e|--------------------------------------|---------------------------------|
B|--------------------------------------|-21b22--22--21----21----21----21-|
G|-0/14P13-----0/16-----0/19----0/20b21-|---------------20----20----20----|
G|--------------------------------------|---------------------------------|
A|--------------------------------------|---------------------------------|
D|--------------------------------------|---------------------------------|

e|---------------------------------------------------------|
B|----21----21----21----21----21----21----21----21----21---|
G|-20----20----20----20----20----20----20----20----20------|
D|---------------------------------------------------------|
A|---------------------------------------------------------|
D|---------------------------------------------------------|

e|--------------------------------|--------------------------------|
B|--------------------------------|--------------------------------|
G|--------------------------------|--------------------------------|
D|-2--2-----2--2----2--2--2----11-|-2--2-----2--2----2--2--2----11-|
A|-2--2-----2--2----2--2--2----11-|-2--2-----2--2----2--2--2----11-|
D|-2--2-----2--2----2--2--2----11-|-2--2-----2--2----2--2--2----11-|

e|--------------------------------|
B|--------------------------------|
G|--------------------------------|
D|-2--2-----2--2----2--2--2----11-|
A|-2--2-----2--2----2--2--2----11-|
D|-2--2-----2--2----2--2--2----11-|



************************************

| b  Bend
| /  Slide up
| P  Pull off

************************************

            
            
Suggest correction
Creating personal tab
Creating personal tab
You can edit any tab online and save it as your Personal.

You can edit, replace or remove any tab part or add personal notes – all changes will be seen only by you.

Personal tabs can be accessed anytime from any device, even offline.
Learn more »
comments
print report bad tab
3 comments total.
+1 reply
huskiguitar 43 Sep 07, 2016 05:57 AM

I think you nailed it! Awesome work!

+1 reply
mattybrittain 383 Sep 27, 2016 04:48 AM

thanks man love the feedback

+1 reply
musicwithouthead 10 Oct 23, 2016 10:55 PM

yea boi awesome work

guest
You may want to rate the tab now too:
select rating
Wanna post a correction for this tab? Suggest correction